ISO-10303-21;
HEADER;
FILE_DESCRIPTION (( 'STEP AP214' ),
    '1' );
FILE_NAME ('490DFL016-S10.stp',
    '2017-10-11T09:19:46',
    ( '' ),
    ( '' ),
    'SwSTEP 2.0',
    'SolidWorks 2015',
    '' );
FILE_SCHEMA (( 'AUTOMOTIVE_DESIGN' ));
ENDSEC;

DATA;
#1 = DIRECTION ( 'NONE',  ( 0.0000000000000000000, 0.0000000000000000000, 1.000000000000000000 ) ) ;
#2 = CARTESIAN_POINT ( 'NONE',  ( 0.0000000000000000000, 0.0000000000000000000, -2.000000000000000000 ) ) ;
#3 = DIRECTION ( 'NONE',  ( 0.0000000000000000000, 0.0000000000000000000, 1.000000000000000000 ) ) ;
#4 = EDGE_CURVE ( 'NONE', #117, #50, #200, .T. ) ;
#5 = LINE ( 'NONE', #151, #171 ) ;
#6 = FACE_OUTER_BOUND ( 'NONE', #212, .T. ) ;
#7 = EDGE_LOOP ( 'NONE', ( #10, #122 ) ) ;
#8 = EDGE_CURVE ( 'NONE', #34, #50, #5, .T. ) ;
#9 = FACE_BOUND ( 'NONE', #54, .T. ) ;
#10 = ORIENTED_EDGE ( 'NONE', *, *, #214, .F. ) ;
#11 =( LENGTH_UNIT ( ) NAMED_UNIT ( * ) SI_UNIT ( .MILLI., .METRE. ) );
#12 =( LENGTH_UNIT ( ) NAMED_UNIT ( * ) SI_UNIT ( .MILLI., .METRE. ) );
#13 = EDGE_CURVE ( 'NONE', #34, #100, #26, .T. ) ;
#14 = DIRECTION ( 'NONE',  ( 0.0000000000000000000, 0.0000000000000000000, 1.000000000000000000 ) ) ;
#15 = CARTESIAN_POINT ( 'NONE',  ( 10.62500000000000400, 0.0000000000000000000, 0.0000000000000000000 ) ) ;
#16 = DIRECTION ( 'NONE',  ( 0.0000000000000000000, 0.0000000000000000000, 1.000000000000000000 ) ) ;
#17 = CARTESIAN_POINT ( 'NONE',  ( 10.62500000000000400, 0.0000000000000000000, -2.000000000000000000 ) ) ;
#18 = VECTOR ( 'NONE', #16, 1000.000000000000000 ) ;
#19 = EDGE_LOOP ( 'NONE', ( #134, #141 ) ) ;
#20 = EDGE_CURVE ( 'NONE', #164, #155, #86, .T. ) ;
#21 = ADVANCED_FACE ( 'NONE', ( #127 ), #187, .F. ) ;
#22 = SHAPE_DEFINITION_REPRESENTATION ( #89, #209 ) ;
#23 = ORIENTED_EDGE ( 'NONE', *, *, #41, .T. ) ;
#24 = AXIS2_PLACEMENT_3D ( 'NONE', #115, #60, #213 ) ;
#25 = DIRECTION ( 'NONE',  ( 1.000000000000000000, 0.0000000000000000000, 0.0000000000000000000 ) ) ;
#26 = CIRCLE ( 'NONE', #64, 10.62500000000000400 ) ;
#27 = SURFACE_STYLE_USAGE ( .BOTH. , #143 ) ;
#28 = DIRECTION ( 'NONE',  ( 0.0000000000000000000, 0.0000000000000000000, 1.000000000000000000 ) ) ;
#29 = MECHANICAL_DESIGN_GEOMETRIC_PRESENTATION_REPRESENTATION (  '', ( #167 ), #40 ) ;
#30 = EDGE_LOOP ( 'NONE', ( #52, #139, #202, #46 ) ) ;
#31 = CARTESIAN_POINT ( 'NONE',  ( 10.62500000000000400, 0.0000000000000000000, -2.000000000000000000 ) ) ;
#32 = EDGE_CURVE ( 'NONE', #158, #155, #205, .T. ) ;
#33 = CARTESIAN_POINT ( 'NONE',  ( 8.000000000000000000, 0.0000000000000000000, -2.000000000000000000 ) ) ;
#34 = VERTEX_POINT ( 'NONE', #107 ) ;
#35 = SURFACE_STYLE_FILL_AREA ( #194 ) ;
#36 = AXIS2_PLACEMENT_3D ( 'NONE', #196, #63, #165 ) ;
#37 = ADVANCED_FACE ( 'NONE', ( #150 ), #77, .T. ) ;
#38 = PRODUCT_DEFINITION_CONTEXT ( 'detailed design', #128, 'design' ) ;
#39 = ORIENTED_EDGE ( 'NONE', *, *, #69, .F. ) ;
#40 =( GEOMETRIC_REPRESENTATION_CONTEXT ( 3 ) GLOBAL_UNCERTAINTY_ASSIGNED_CONTEXT ( ( #72 ) ) GLOBAL_UNIT_ASSIGNED_CONTEXT ( ( #11, #114, #97 ) ) REPRESENTATION_CONTEXT ( 'NONE', 'WORKASPACE' ) );
#41 = EDGE_CURVE ( 'NONE', #100, #34, #110, .T. ) ;
#42 = FILL_AREA_STYLE ('',( #208 ) ) ;
#43 = EDGE_CURVE ( 'NONE', #68, #158, #157, .T. ) ;
#44 = FACE_OUTER_BOUND ( 'NONE', #82, .T. ) ;
#45 =( NAMED_UNIT ( * ) PLANE_ANGLE_UNIT ( ) SI_UNIT ( $, .RADIAN. ) );
#46 = ORIENTED_EDGE ( 'NONE', *, *, #203, .F. ) ;
#47 = STYLED_ITEM ( 'NONE', ( #162 ), #184 ) ;
#48 = DIRECTION ( 'NONE',  ( 1.000000000000000000, 0.0000000000000000000, 0.0000000000000000000 ) ) ;
#49 = CARTESIAN_POINT ( 'NONE',  ( -8.000000000000000000, 9.797174393178825700E-016, -2.000000000000000000 ) ) ;
#50 = VERTEX_POINT ( 'NONE', #118 ) ;
#51 = DIRECTION ( 'NONE',  ( 0.0000000000000000000, 0.0000000000000000000, 1.000000000000000000 ) ) ;
#52 = ORIENTED_EDGE ( 'NONE', *, *, #8, .F. ) ;
#53 = AXIS2_PLACEMENT_3D ( 'NONE', #81, #116, #169 ) ;
#54 = EDGE_LOOP ( 'NONE', ( #204, #126 ) ) ;
#55 = CIRCLE ( 'NONE', #124, 10.62500000000000400 ) ;
#56 = ORIENTED_EDGE ( 'NONE', *, *, #32, .F. ) ;
#57 = PRODUCT_CONTEXT ( 'NONE', #160, 'mechanical' ) ;
#58 = COLOUR_RGB ( '',0.7254901960784313500, 0.4470588235294117300, 0.3686274509803921800 ) ;
#59 = ORIENTED_EDGE ( 'NONE', *, *, #4, .F. ) ;
#60 = DIRECTION ( 'NONE',  ( 0.0000000000000000000, 0.0000000000000000000, 1.000000000000000000 ) ) ;
#61 = SURFACE_STYLE_USAGE ( .BOTH. , #178 ) ;
#62 = CARTESIAN_POINT ( 'NONE',  ( -8.000000000000000000, 9.797174393178825700E-016, 0.0000000000000000000 ) ) ;
#63 = DIRECTION ( 'NONE',  ( 0.0000000000000000000, 0.0000000000000000000, 1.000000000000000000 ) ) ;
#64 = AXIS2_PLACEMENT_3D ( 'NONE', #121, #108, #199 ) ;
#65 = CARTESIAN_POINT ( 'NONE',  ( 0.0000000000000000000, 0.0000000000000000000, -2.000000000000000000 ) ) ;
#66 = CARTESIAN_POINT ( 'NONE',  ( 0.0000000000000000000, 0.0000000000000000000, 0.0000000000000000000 ) ) ;
#67 = COLOUR_RGB ( '',0.7254901960784313500, 0.4470588235294117300, 0.3686274509803921800 ) ;
#68 = VERTEX_POINT ( 'NONE', #49 ) ;
#69 = EDGE_CURVE ( 'NONE', #100, #117, #191, .T. ) ;
#70 = ORIENTED_EDGE ( 'NONE', *, *, #8, .T. ) ;
#71 = AXIS2_PLACEMENT_3D ( 'NONE', #78, #101, #149 ) ;
#72 = UNCERTAINTY_MEASURE_WITH_UNIT (LENGTH_MEASURE( 1.000000000000000100E-005 ), #11, 'distance_accuracy_value', 'NONE');
#73 = ADVANCED_FACE ( 'NONE', ( #9, #120 ), #181, .F. ) ;
#74 = ORIENTED_EDGE ( 'NONE', *, *, #20, .T. ) ;
#75 = AXIS2_PLACEMENT_3D ( 'NONE', #206, #174, #25 ) ;
#76 = AXIS2_PLACEMENT_3D ( 'NONE', #66, #168, #152 ) ;
#77 = CYLINDRICAL_SURFACE ( 'NONE', #123, 10.62500000000000400 ) ;
#78 = CARTESIAN_POINT ( 'NONE',  ( 0.0000000000000000000, 0.0000000000000000000, -2.000000000000000000 ) ) ;
#79 = DIRECTION ( 'NONE',  ( 0.0000000000000000000, 0.0000000000000000000, 1.000000000000000000 ) ) ;
#80 = EDGE_CURVE ( 'NONE', #68, #164, #144, .T. ) ;
#81 = CARTESIAN_POINT ( 'NONE',  ( 0.0000000000000000000, 0.0000000000000000000, 0.0000000000000000000 ) ) ;
#82 = EDGE_LOOP ( 'NONE', ( #159, #192, #74, #56 ) ) ;
#83 = CARTESIAN_POINT ( 'NONE',  ( 8.000000000000000000, 0.0000000000000000000, -2.000000000000000000 ) ) ;
#84 = AXIS2_PLACEMENT_3D ( 'NONE', #179, #14, #211 ) ;
#85 = CARTESIAN_POINT ( 'NONE',  ( 0.0000000000000000000, 0.0000000000000000000, -2.000000000000000000 ) ) ;
#86 = CIRCLE ( 'NONE', #76, 8.000000000000000000 ) ;
#87 = CARTESIAN_POINT ( 'NONE',  ( 0.0000000000000000000, 0.0000000000000000000, -2.000000000000000000 ) ) ;
#88 = CYLINDRICAL_SURFACE ( 'NONE', #71, 8.000000000000000000 ) ;
#89 = PRODUCT_DEFINITION_SHAPE ( 'NONE', 'NONE',  #90 ) ;
#90 = PRODUCT_DEFINITION ( 'UNKNOWN', '', #102, #38 ) ;
#91 = AXIS2_PLACEMENT_3D ( 'NONE', #2, #105, #197 ) ;
#92 = UNCERTAINTY_MEASURE_WITH_UNIT (LENGTH_MEASURE( 1.000000000000000100E-005 ), #12, 'distance_accuracy_value', 'NONE');
#93 = ADVANCED_FACE ( 'NONE', ( #99 ), #137, .T. ) ;
#94 = PRODUCT ( '490DFL016-S10', '490DFL016-S10', '', ( #57 ) ) ;
#95 = PRESENTATION_LAYER_ASSIGNMENT (  '', '', ( #47 ) ) ;
#96 = CLOSED_SHELL ( 'NONE', ( #156, #93, #37, #73, #172, #21 ) ) ;
#97 =( NAMED_UNIT ( * ) SI_UNIT ( $, .STERADIAN. ) SOLID_ANGLE_UNIT ( ) );
#98 =( NAMED_UNIT ( * ) SI_UNIT ( $, .STERADIAN. ) SOLID_ANGLE_UNIT ( ) );
#99 = FACE_OUTER_BOUND ( 'NONE', #146, .T. ) ;
#100 = VERTEX_POINT ( 'NONE', #31 ) ;
#101 = DIRECTION ( 'NONE',  ( 0.0000000000000000000, 0.0000000000000000000, 1.000000000000000000 ) ) ;
#102 = PRODUCT_DEFINITION_FORMATION_WITH_SPECIFIED_SOURCE ( 'ANY', '', #94, .NOT_KNOWN. ) ;
#103 = CARTESIAN_POINT ( 'NONE',  ( -8.000000000000000000, 9.797174393178825700E-016, -2.000000000000000000 ) ) ;
#104 = AXIS2_PLACEMENT_3D ( 'NONE', #65, #166, #48 ) ;
#105 = DIRECTION ( 'NONE',  ( 0.0000000000000000000, 0.0000000000000000000, 1.000000000000000000 ) ) ;
#106 = ORIENTED_EDGE ( 'NONE', *, *, #32, .T. ) ;
#107 = CARTESIAN_POINT ( 'NONE',  ( -10.62500000000000400, 1.301187224094063300E-015, -2.000000000000000000 ) ) ;
#108 = DIRECTION ( 'NONE',  ( 0.0000000000000000000, 0.0000000000000000000, 1.000000000000000000 ) ) ;
#109 = VECTOR ( 'NONE', #132, 1000.000000000000000 ) ;
#110 = CIRCLE ( 'NONE', #91, 10.62500000000000400 ) ;
#111 = PRODUCT_RELATED_PRODUCT_CATEGORY ( 'part', '', ( #94 ) ) ;
#112 = AXIS2_PLACEMENT_3D ( 'NONE', #87, #136, #183 ) ;
#113 =( GEOMETRIC_REPRESENTATION_CONTEXT ( 3 ) GLOBAL_UNCERTAINTY_ASSIGNED_CONTEXT ( ( #188 ) ) GLOBAL_UNIT_ASSIGNED_CONTEXT ( ( #161, #45, #147 ) ) REPRESENTATION_CONTEXT ( 'NONE', 'WORKASPACE' ) );
#114 =( NAMED_UNIT ( * ) PLANE_ANGLE_UNIT ( ) SI_UNIT ( $, .RADIAN. ) );
#115 = CARTESIAN_POINT ( 'NONE',  ( 0.0000000000000000000, 0.0000000000000000000, -2.000000000000000000 ) ) ;
#116 = DIRECTION ( 'NONE',  ( 0.0000000000000000000, 0.0000000000000000000, 1.000000000000000000 ) ) ;
#117 = VERTEX_POINT ( 'NONE', #15 ) ;
#118 = CARTESIAN_POINT ( 'NONE',  ( -10.62500000000000400, 1.301187224094063300E-015, 0.0000000000000000000 ) ) ;
#119 = CARTESIAN_POINT ( 'NONE',  ( 0.0000000000000000000, 0.0000000000000000000, -2.000000000000000000 ) ) ;
#120 = FACE_OUTER_BOUND ( 'NONE', #19, .T. ) ;
#121 = CARTESIAN_POINT ( 'NONE',  ( 0.0000000000000000000, 0.0000000000000000000, -2.000000000000000000 ) ) ;
#122 = ORIENTED_EDGE ( 'NONE', *, *, #20, .F. ) ;
#123 = AXIS2_PLACEMENT_3D ( 'NONE', #119, #182, #135 ) ;
#124 = AXIS2_PLACEMENT_3D ( 'NONE', #193, #79, #177 ) ;
#125 = CIRCLE ( 'NONE', #133, 8.000000000000000000 ) ;
#126 = ORIENTED_EDGE ( 'NONE', *, *, #43, .T. ) ;
#127 = FACE_OUTER_BOUND ( 'NONE', #173, .T. ) ;
#128 = APPLICATION_CONTEXT ( 'automotive_design' ) ;
#129 = DIRECTION ( 'NONE',  ( 1.000000000000000000, 0.0000000000000000000, 0.0000000000000000000 ) ) ;
#130 = ORIENTED_EDGE ( 'NONE', *, *, #214, .T. ) ;
#131 = CARTESIAN_POINT ( 'NONE',  ( 8.000000000000000000, 0.0000000000000000000, 0.0000000000000000000 ) ) ;
#132 = DIRECTION ( 'NONE',  ( 0.0000000000000000000, 0.0000000000000000000, 1.000000000000000000 ) ) ;
#133 = AXIS2_PLACEMENT_3D ( 'NONE', #145, #28, #129 ) ;
#134 = ORIENTED_EDGE ( 'NONE', *, *, #41, .F. ) ;
#135 = DIRECTION ( 'NONE',  ( 1.000000000000000000, 0.0000000000000000000, 0.0000000000000000000 ) ) ;
#136 = DIRECTION ( 'NONE',  ( 0.0000000000000000000, 0.0000000000000000000, 1.000000000000000000 ) ) ;
#137 = CYLINDRICAL_SURFACE ( 'NONE', #36, 10.62500000000000400 ) ;
#138 = ORIENTED_EDGE ( 'NONE', *, *, #4, .T. ) ;
#139 = ORIENTED_EDGE ( 'NONE', *, *, #13, .T. ) ;
#140 = MECHANICAL_DESIGN_GEOMETRIC_PRESENTATION_REPRESENTATION (  '', ( #47 ), #113 ) ;
#141 = ORIENTED_EDGE ( 'NONE', *, *, #13, .F. ) ;
#142 =( GEOMETRIC_REPRESENTATION_CONTEXT ( 3 ) GLOBAL_UNCERTAINTY_ASSIGNED_CONTEXT ( ( #92 ) ) GLOBAL_UNIT_ASSIGNED_CONTEXT ( ( #12, #207, #98 ) ) REPRESENTATION_CONTEXT ( 'NONE', 'WORKASPACE' ) );
#143 = SURFACE_SIDE_STYLE ('',( #170 ) ) ;
#144 = LINE ( 'NONE', #103, #18 ) ;
#145 = CARTESIAN_POINT ( 'NONE',  ( 0.0000000000000000000, 0.0000000000000000000, 0.0000000000000000000 ) ) ;
#146 = EDGE_LOOP ( 'NONE', ( #23, #70, #59, #39 ) ) ;
#147 =( NAMED_UNIT ( * ) SI_UNIT ( $, .STERADIAN. ) SOLID_ANGLE_UNIT ( ) );
#148 = EDGE_CURVE ( 'NONE', #158, #68, #185, .T. ) ;
#149 = DIRECTION ( 'NONE',  ( 1.000000000000000000, 0.0000000000000000000, 0.0000000000000000000 ) ) ;
#150 = FACE_OUTER_BOUND ( 'NONE', #30, .T. ) ;
#151 = CARTESIAN_POINT ( 'NONE',  ( -10.62500000000000400, 1.301187224094063300E-015, -2.000000000000000000 ) ) ;
#152 = DIRECTION ( 'NONE',  ( 1.000000000000000000, 0.0000000000000000000, 0.0000000000000000000 ) ) ;
#153 = PRESENTATION_STYLE_ASSIGNMENT (( #27 ) ) ;
#154 = AXIS2_PLACEMENT_3D ( 'NONE', #85, #1, #180 ) ;
#155 = VERTEX_POINT ( 'NONE', #131 ) ;
#156 = ADVANCED_FACE ( 'NONE', ( #44 ), #88, .F. ) ;
#157 = CIRCLE ( 'NONE', #104, 8.000000000000000000 ) ;
#158 = VERTEX_POINT ( 'NONE', #83 ) ;
#159 = ORIENTED_EDGE ( 'NONE', *, *, #43, .F. ) ;
#160 = APPLICATION_CONTEXT ( 'automotive_design' ) ;
#161 =( LENGTH_UNIT ( ) NAMED_UNIT ( * ) SI_UNIT ( .MILLI., .METRE. ) );
#162 = PRESENTATION_STYLE_ASSIGNMENT (( #61 ) ) ;
#163 = FILL_AREA_STYLE_COLOUR ( '', #67 ) ;
#164 = VERTEX_POINT ( 'NONE', #62 ) ;
#165 = DIRECTION ( 'NONE',  ( 1.000000000000000000, 0.0000000000000000000, 0.0000000000000000000 ) ) ;
#166 = DIRECTION ( 'NONE',  ( 0.0000000000000000000, 0.0000000000000000000, 1.000000000000000000 ) ) ;
#167 = STYLED_ITEM ( 'NONE', ( #153 ), #209 ) ;
#168 = DIRECTION ( 'NONE',  ( 0.0000000000000000000, 0.0000000000000000000, 1.000000000000000000 ) ) ;
#169 = DIRECTION ( 'NONE',  ( 1.000000000000000000, 0.0000000000000000000, 0.0000000000000000000 ) ) ;
#170 = SURFACE_STYLE_FILL_AREA ( #42 ) ;
#171 = VECTOR ( 'NONE', #51, 1000.000000000000000 ) ;
#172 = ADVANCED_FACE ( 'NONE', ( #210, #6 ), #195, .T. ) ;
#173 = EDGE_LOOP ( 'NONE', ( #186, #201, #106, #130 ) ) ;
#174 = DIRECTION ( 'NONE',  ( 0.0000000000000000000, 0.0000000000000000000, 1.000000000000000000 ) ) ;
#175 = PRESENTATION_LAYER_ASSIGNMENT (  '', '', ( #167 ) ) ;
#176 = APPLICATION_PROTOCOL_DEFINITION ( 'draft international standard', 'automotive_design', 1998, #160 ) ;
#177 = DIRECTION ( 'NONE',  ( 1.000000000000000000, 0.0000000000000000000, 0.0000000000000000000 ) ) ;
#178 = SURFACE_SIDE_STYLE ('',( #35 ) ) ;
#179 = CARTESIAN_POINT ( 'NONE',  ( 0.0000000000000000000, 0.0000000000000000000, 0.0000000000000000000 ) ) ;
#180 = DIRECTION ( 'NONE',  ( 1.000000000000000000, 0.0000000000000000000, -0.0000000000000000000 ) ) ;
#181 = PLANE ( 'NONE',  #154 ) ;
#182 = DIRECTION ( 'NONE',  ( 0.0000000000000000000, 0.0000000000000000000, 1.000000000000000000 ) ) ;
#183 = DIRECTION ( 'NONE',  ( 1.000000000000000000, 0.0000000000000000000, 0.0000000000000000000 ) ) ;
#184 = MANIFOLD_SOLID_BREP ( 'Aufsatz-Linear austragen1', #96 ) ;
#185 = CIRCLE ( 'NONE', #24, 8.000000000000000000 ) ;
#186 = ORIENTED_EDGE ( 'NONE', *, *, #80, .F. ) ;
#187 = CYLINDRICAL_SURFACE ( 'NONE', #112, 8.000000000000000000 ) ;
#188 = UNCERTAINTY_MEASURE_WITH_UNIT (LENGTH_MEASURE( 1.000000000000000100E-005 ), #161, 'distance_accuracy_value', 'NONE');
#189 = ORIENTED_EDGE ( 'NONE', *, *, #203, .T. ) ;
#190 = APPLICATION_PROTOCOL_DEFINITION ( 'draft international standard', 'automotive_design', 1998, #128 ) ;
#191 = LINE ( 'NONE', #17, #109 ) ;
#192 = ORIENTED_EDGE ( 'NONE', *, *, #80, .T. ) ;
#193 = CARTESIAN_POINT ( 'NONE',  ( 0.0000000000000000000, 0.0000000000000000000, 0.0000000000000000000 ) ) ;
#194 = FILL_AREA_STYLE ('',( #163 ) ) ;
#195 = PLANE ( 'NONE',  #84 ) ;
#196 = CARTESIAN_POINT ( 'NONE',  ( 0.0000000000000000000, 0.0000000000000000000, -2.000000000000000000 ) ) ;
#197 = DIRECTION ( 'NONE',  ( 1.000000000000000000, 0.0000000000000000000, 0.0000000000000000000 ) ) ;
#198 = VECTOR ( 'NONE', #3, 1000.000000000000000 ) ;
#199 = DIRECTION ( 'NONE',  ( 1.000000000000000000, 0.0000000000000000000, 0.0000000000000000000 ) ) ;
#200 = CIRCLE ( 'NONE', #53, 10.62500000000000400 ) ;
#201 = ORIENTED_EDGE ( 'NONE', *, *, #148, .F. ) ;
#202 = ORIENTED_EDGE ( 'NONE', *, *, #69, .T. ) ;
#203 = EDGE_CURVE ( 'NONE', #50, #117, #55, .T. ) ;
#204 = ORIENTED_EDGE ( 'NONE', *, *, #148, .T. ) ;
#205 = LINE ( 'NONE', #33, #198 ) ;
#206 = CARTESIAN_POINT ( 'NONE',  ( 0.0000000000000000000, 0.0000000000000000000, 0.0000000000000000000 ) ) ;
#207 =( NAMED_UNIT ( * ) PLANE_ANGLE_UNIT ( ) SI_UNIT ( $, .RADIAN. ) );
#208 = FILL_AREA_STYLE_COLOUR ( '', #58 ) ;
#209 = ADVANCED_BREP_SHAPE_REPRESENTATION ( '490DFL016-S10', ( #184, #75 ), #142 ) ;
#210 = FACE_BOUND ( 'NONE', #7, .T. ) ;
#211 = DIRECTION ( 'NONE',  ( 1.000000000000000000, 0.0000000000000000000, -0.0000000000000000000 ) ) ;
#212 = EDGE_LOOP ( 'NONE', ( #138, #189 ) ) ;
#213 = DIRECTION ( 'NONE',  ( 1.000000000000000000, 0.0000000000000000000, 0.0000000000000000000 ) ) ;
#214 = EDGE_CURVE ( 'NONE', #155, #164, #125, .T. ) ;
ENDSEC;
END-ISO-10303-21;
