ISO-10303-21;
HEADER;
FILE_DESCRIPTION (( 'STEP AP214' ),
    '1' );
FILE_NAME ('490DFL016-S-G-S5. .step',
    '2017-12-12T13:31:01',
    ( 'install' ),
    ( '' ),
    'SwSTEP 2.0',
    'SolidWorks 2015',
    '' );
FILE_SCHEMA (( 'AUTOMOTIVE_DESIGN' ));
ENDSEC;

DATA;
#1 = PRODUCT_RELATED_PRODUCT_CATEGORY ( 'part', '', ( #130 ) ) ;
#2 = EDGE_LOOP ( 'NONE', ( #117, #195, #9, #211 ) ) ;
#3 = UNCERTAINTY_MEASURE_WITH_UNIT (LENGTH_MEASURE( 1.000000000000000100E-005 ), #93, 'distance_accuracy_value', 'NONE');
#4 = EDGE_CURVE ( 'NONE', #96, #166, #23, .T. ) ;
#5 = ORIENTED_EDGE ( 'NONE', *, *, #148, .T. ) ;
#6 = AXIS2_PLACEMENT_3D ( 'NONE', #90, #208, #214 ) ;
#7 =( LENGTH_UNIT ( ) NAMED_UNIT ( * ) SI_UNIT ( .MILLI., .METRE. ) );
#8 = CYLINDRICAL_SURFACE ( 'NONE', #164, 10.62500000000000200 ) ;
#9 = ORIENTED_EDGE ( 'NONE', *, *, #136, .T. ) ;
#10 = PRODUCT_DEFINITION_FORMATION_WITH_SPECIFIED_SOURCE ( 'ANY', '', #130, .NOT_KNOWN. ) ;
#11 = SURFACE_STYLE_FILL_AREA ( #135 ) ;
#12 = EDGE_CURVE ( 'NONE', #80, #96, #149, .T. ) ;
#13 = ORIENTED_EDGE ( 'NONE', *, *, #160, .F. ) ;
#14 = AXIS2_PLACEMENT_3D ( 'NONE', #43, #120, #170 ) ;
#15 = FACE_OUTER_BOUND ( 'NONE', #2, .T. ) ;
#16 = EDGE_LOOP ( 'NONE', ( #13, #128, #5, #34 ) ) ;
#17 = CARTESIAN_POINT ( 'NONE',  ( 10.62500000000000200, 0.0000000000000000000, -2.000000000000000000 ) ) ;
#18 = PRODUCT_DEFINITION ( 'UNKNOWN', '', #10, #174 ) ;
#19 = DIRECTION ( 'NONE',  ( 0.0000000000000000000, 0.0000000000000000000, 1.000000000000000000 ) ) ;
#20 = DIRECTION ( 'NONE',  ( 0.0000000000000000000, 0.0000000000000000000, 1.000000000000000000 ) ) ;
#21 = COLOUR_RGB ( '',0.7254901960784313500, 0.4470588235294117300, 0.3686274509803921800 ) ;
#22 = CARTESIAN_POINT ( 'NONE',  ( 0.0000000000000000000, 0.0000000000000000000, -2.000000000000000000 ) ) ;
#23 = LINE ( 'NONE', #17, #197 ) ;
#24 = PLANE ( 'NONE',  #14 ) ;
#25 = DIRECTION ( 'NONE',  ( 0.0000000000000000000, 0.0000000000000000000, 1.000000000000000000 ) ) ;
#26 = EDGE_CURVE ( 'NONE', #72, #166, #146, .T. ) ;
#27 =( NAMED_UNIT ( * ) SI_UNIT ( $, .STERADIAN. ) SOLID_ANGLE_UNIT ( ) );
#28 = DIRECTION ( 'NONE',  ( 1.000000000000000000, 0.0000000000000000000, 0.0000000000000000000 ) ) ;
#29 = CARTESIAN_POINT ( 'NONE',  ( -10.62500000000000200, 1.301187224094063100E-015, -2.000000000000000000 ) ) ;
#30 = ORIENTED_EDGE ( 'NONE', *, *, #148, .F. ) ;
#31 = DIRECTION ( 'NONE',  ( 0.0000000000000000000, 0.0000000000000000000, 1.000000000000000000 ) ) ;
#32 = AXIS2_PLACEMENT_3D ( 'NONE', #22, #190, #103 ) ;
#33 = AXIS2_PLACEMENT_3D ( 'NONE', #193, #122, #28 ) ;
#34 = ORIENTED_EDGE ( 'NONE', *, *, #136, .F. ) ;
#35 = EDGE_CURVE ( 'NONE', #50, #125, #70, .T. ) ;
#36 = ADVANCED_FACE ( 'NONE', ( #67, #102 ), #56, .T. ) ;
#37 = ORIENTED_EDGE ( 'NONE', *, *, #12, .T. ) ;
#38 = CARTESIAN_POINT ( 'NONE',  ( 0.0000000000000000000, 0.0000000000000000000, 0.0000000000000000000 ) ) ;
#39 = LINE ( 'NONE', #29, #212 ) ;
#40 = ADVANCED_BREP_SHAPE_REPRESENTATION ( '490DFL016-S-G-S5. ', ( #196, #33 ), #116 ) ;
#41 = DIRECTION ( 'NONE',  ( 0.0000000000000000000, 0.0000000000000000000, 1.000000000000000000 ) ) ;
#42 = AXIS2_PLACEMENT_3D ( 'NONE', #58, #101, #118 ) ;
#43 = CARTESIAN_POINT ( 'NONE',  ( 0.0000000000000000000, 0.0000000000000000000, -2.000000000000000000 ) ) ;
#44 = APPLICATION_PROTOCOL_DEFINITION ( 'draft international standard', 'automotive_design', 1998, #63 ) ;
#45 = APPLICATION_CONTEXT ( 'automotive_design' ) ;
#46 = DIRECTION ( 'NONE',  ( 1.000000000000000000, 0.0000000000000000000, 0.0000000000000000000 ) ) ;
#47 = EDGE_LOOP ( 'NONE', ( #184, #177 ) ) ;
#48 = VECTOR ( 'NONE', #66, 1000.000000000000000 ) ;
#49 = EDGE_CURVE ( 'NONE', #145, #64, #144, .T. ) ;
#50 = VERTEX_POINT ( 'NONE', #150 ) ;
#51 = LINE ( 'NONE', #206, #48 ) ;
#52 = AXIS2_PLACEMENT_3D ( 'NONE', #155, #61, #173 ) ;
#53 = PRODUCT_DEFINITION_SHAPE ( 'NONE', 'NONE',  #18 ) ;
#54 = ORIENTED_EDGE ( 'NONE', *, *, #198, .F. ) ;
#55 = ADVANCED_FACE ( 'NONE', ( #15 ), #182, .F. ) ;
#56 = PLANE ( 'NONE',  #74 ) ;
#57 = CARTESIAN_POINT ( 'NONE',  ( 0.0000000000000000000, 0.0000000000000000000, -2.000000000000000000 ) ) ;
#58 = CARTESIAN_POINT ( 'NONE',  ( 0.0000000000000000000, 0.0000000000000000000, -2.000000000000000000 ) ) ;
#59 = FACE_BOUND ( 'NONE', #112, .T. ) ;
#60 = SURFACE_SIDE_STYLE ('',( #11 ) ) ;
#61 = DIRECTION ( 'NONE',  ( 0.0000000000000000000, 0.0000000000000000000, 1.000000000000000000 ) ) ;
#62 = FILL_AREA_STYLE_COLOUR ( '', #161 ) ;
#63 = APPLICATION_CONTEXT ( 'automotive_design' ) ;
#64 = VERTEX_POINT ( 'NONE', #73 ) ;
#65 = CARTESIAN_POINT ( 'NONE',  ( 0.0000000000000000000, 0.0000000000000000000, -2.000000000000000000 ) ) ;
#66 = DIRECTION ( 'NONE',  ( 0.0000000000000000000, 0.0000000000000000000, 1.000000000000000000 ) ) ;
#67 = FACE_BOUND ( 'NONE', #82, .T. ) ;
#68 = ORIENTED_EDGE ( 'NONE', *, *, #4, .F. ) ;
#69 =( GEOMETRIC_REPRESENTATION_CONTEXT ( 3 ) GLOBAL_UNCERTAINTY_ASSIGNED_CONTEXT ( ( #3 ) ) GLOBAL_UNIT_ASSIGNED_CONTEXT ( ( #93, #210, #107 ) ) REPRESENTATION_CONTEXT ( 'NONE', 'WORKASPACE' ) );
#70 = CIRCLE ( 'NONE', #104, 8.000000000000000000 ) ;
#71 = DIRECTION ( 'NONE',  ( 1.000000000000000000, 0.0000000000000000000, 0.0000000000000000000 ) ) ;
#72 = VERTEX_POINT ( 'NONE', #88 ) ;
#73 = CARTESIAN_POINT ( 'NONE',  ( -8.000000000000000000, 9.797174393178825700E-016, 0.0000000000000000000 ) ) ;
#74 = AXIS2_PLACEMENT_3D ( 'NONE', #38, #187, #87 ) ;
#75 = CARTESIAN_POINT ( 'NONE',  ( 8.000000000000000000, 0.0000000000000000000, 0.0000000000000000000 ) ) ;
#76 = CARTESIAN_POINT ( 'NONE',  ( 0.0000000000000000000, 0.0000000000000000000, -2.000000000000000000 ) ) ;
#77 = SURFACE_SIDE_STYLE ('',( #168 ) ) ;
#78 = MECHANICAL_DESIGN_GEOMETRIC_PRESENTATION_REPRESENTATION (  '', ( #97 ), #69 ) ;
#79 = FACE_OUTER_BOUND ( 'NONE', #152, .T. ) ;
#80 = VERTEX_POINT ( 'NONE', #204 ) ;
#81 = UNCERTAINTY_MEASURE_WITH_UNIT (LENGTH_MEASURE( 1.000000000000000100E-005 ), #7, 'distance_accuracy_value', 'NONE');
#82 = EDGE_LOOP ( 'NONE', ( #203, #30 ) ) ;
#83 = AXIS2_PLACEMENT_3D ( 'NONE', #134, #41, #153 ) ;
#84 = ORIENTED_EDGE ( 'NONE', *, *, #35, .T. ) ;
#85 = DIRECTION ( 'NONE',  ( 0.0000000000000000000, 0.0000000000000000000, 1.000000000000000000 ) ) ;
#86 = PRESENTATION_LAYER_ASSIGNMENT (  '', '', ( #97 ) ) ;
#87 = DIRECTION ( 'NONE',  ( 1.000000000000000000, 0.0000000000000000000, -0.0000000000000000000 ) ) ;
#88 = CARTESIAN_POINT ( 'NONE',  ( -10.62500000000000200, 1.301187224094063100E-015, 0.0000000000000000000 ) ) ;
#89 = CARTESIAN_POINT ( 'NONE',  ( 8.000000000000000000, 0.0000000000000000000, -2.000000000000000000 ) ) ;
#90 = CARTESIAN_POINT ( 'NONE',  ( 0.0000000000000000000, 0.0000000000000000000, -2.000000000000000000 ) ) ;
#91 = CARTESIAN_POINT ( 'NONE',  ( 0.0000000000000000000, 0.0000000000000000000, 0.0000000000000000000 ) ) ;
#92 = VECTOR ( 'NONE', #105, 1000.000000000000000 ) ;
#93 =( LENGTH_UNIT ( ) NAMED_UNIT ( * ) SI_UNIT ( .MILLI., .METRE. ) );
#94 = EDGE_LOOP ( 'NONE', ( #54, #37, #110, #140 ) ) ;
#95 = CYLINDRICAL_SURFACE ( 'NONE', #32, 8.000000000000000000 ) ;
#96 = VERTEX_POINT ( 'NONE', #169 ) ;
#97 = STYLED_ITEM ( 'NONE', ( #147 ), #40 ) ;
#98 = LINE ( 'NONE', #89, #92 ) ;
#99 = ORIENTED_EDGE ( 'NONE', *, *, #207, .T. ) ;
#100 = ADVANCED_FACE ( 'NONE', ( #191 ), #95, .F. ) ;
#101 = DIRECTION ( 'NONE',  ( 0.0000000000000000000, 0.0000000000000000000, 1.000000000000000000 ) ) ;
#102 = FACE_OUTER_BOUND ( 'NONE', #158, .T. ) ;
#103 = DIRECTION ( 'NONE',  ( 1.000000000000000000, 0.0000000000000000000, 0.0000000000000000000 ) ) ;
#104 = AXIS2_PLACEMENT_3D ( 'NONE', #57, #167, #71 ) ;
#105 = DIRECTION ( 'NONE',  ( 0.0000000000000000000, 0.0000000000000000000, 1.000000000000000000 ) ) ;
#106 = DIRECTION ( 'NONE',  ( 1.000000000000000000, 0.0000000000000000000, 0.0000000000000000000 ) ) ;
#107 =( NAMED_UNIT ( * ) SI_UNIT ( $, .STERADIAN. ) SOLID_ANGLE_UNIT ( ) );
#108 = CLOSED_SHELL ( 'NONE', ( #100, #185, #165, #114, #36, #55 ) ) ;
#109 = ORIENTED_EDGE ( 'NONE', *, *, #183, .T. ) ;
#110 = ORIENTED_EDGE ( 'NONE', *, *, #4, .T. ) ;
#111 = UNCERTAINTY_MEASURE_WITH_UNIT (LENGTH_MEASURE( 1.000000000000000100E-005 ), #205, 'distance_accuracy_value', 'NONE');
#112 = EDGE_LOOP ( 'NONE', ( #84, #200 ) ) ;
#113 = AXIS2_PLACEMENT_3D ( 'NONE', #115, #19, #133 ) ;
#114 = ADVANCED_FACE ( 'NONE', ( #59, #137 ), #24, .F. ) ;
#115 = CARTESIAN_POINT ( 'NONE',  ( 0.0000000000000000000, 0.0000000000000000000, 0.0000000000000000000 ) ) ;
#116 =( GEOMETRIC_REPRESENTATION_CONTEXT ( 3 ) GLOBAL_UNCERTAINTY_ASSIGNED_CONTEXT ( ( #81 ) ) GLOBAL_UNIT_ASSIGNED_CONTEXT ( ( #7, #121, #27 ) ) REPRESENTATION_CONTEXT ( 'NONE', 'WORKASPACE' ) );
#117 = ORIENTED_EDGE ( 'NONE', *, *, #172, .F. ) ;
#118 = DIRECTION ( 'NONE',  ( 1.000000000000000000, 0.0000000000000000000, 0.0000000000000000000 ) ) ;
#119 = CIRCLE ( 'NONE', #178, 10.62500000000000200 ) ;
#120 = DIRECTION ( 'NONE',  ( 0.0000000000000000000, 0.0000000000000000000, 1.000000000000000000 ) ) ;
#121 =( NAMED_UNIT ( * ) PLANE_ANGLE_UNIT ( ) SI_UNIT ( $, .RADIAN. ) );
#122 = DIRECTION ( 'NONE',  ( 0.0000000000000000000, 0.0000000000000000000, 1.000000000000000000 ) ) ;
#123 = FACE_OUTER_BOUND ( 'NONE', #94, .T. ) ;
#124 = FILL_AREA_STYLE_COLOUR ( '', #21 ) ;
#125 = VERTEX_POINT ( 'NONE', #154 ) ;
#126 = CARTESIAN_POINT ( 'NONE',  ( 10.62500000000000200, 0.0000000000000000000, 0.0000000000000000000 ) ) ;
#127 = AXIS2_PLACEMENT_3D ( 'NONE', #186, #85, #202 ) ;
#128 = ORIENTED_EDGE ( 'NONE', *, *, #172, .T. ) ;
#129 =( GEOMETRIC_REPRESENTATION_CONTEXT ( 3 ) GLOBAL_UNCERTAINTY_ASSIGNED_CONTEXT ( ( #111 ) ) GLOBAL_UNIT_ASSIGNED_CONTEXT ( ( #205, #143, #179 ) ) REPRESENTATION_CONTEXT ( 'NONE', 'WORKASPACE' ) );
#130 = PRODUCT ( '490DFL016-S-G-S5. ', '490DFL016-S-G-S5. ', '', ( #139 ) ) ;
#131 = CYLINDRICAL_SURFACE ( 'NONE', #188, 10.62500000000000200 ) ;
#132 = ORIENTED_EDGE ( 'NONE', *, *, #26, .T. ) ;
#133 = DIRECTION ( 'NONE',  ( 1.000000000000000000, 0.0000000000000000000, 0.0000000000000000000 ) ) ;
#134 = CARTESIAN_POINT ( 'NONE',  ( 0.0000000000000000000, 0.0000000000000000000, 0.0000000000000000000 ) ) ;
#135 = FILL_AREA_STYLE ('',( #124 ) ) ;
#136 = EDGE_CURVE ( 'NONE', #50, #145, #98, .T. ) ;
#137 = FACE_OUTER_BOUND ( 'NONE', #47, .T. ) ;
#138 = SHAPE_DEFINITION_REPRESENTATION ( #53, #40 ) ;
#139 = PRODUCT_CONTEXT ( 'NONE', #63, 'mechanical' ) ;
#140 = ORIENTED_EDGE ( 'NONE', *, *, #26, .F. ) ;
#141 = MECHANICAL_DESIGN_GEOMETRIC_PRESENTATION_REPRESENTATION (  '', ( #213 ), #129 ) ;
#142 = CARTESIAN_POINT ( 'NONE',  ( 0.0000000000000000000, 0.0000000000000000000, -2.000000000000000000 ) ) ;
#143 =( NAMED_UNIT ( * ) PLANE_ANGLE_UNIT ( ) SI_UNIT ( $, .RADIAN. ) );
#144 = CIRCLE ( 'NONE', #83, 8.000000000000000000 ) ;
#145 = VERTEX_POINT ( 'NONE', #75 ) ;
#146 = CIRCLE ( 'NONE', #113, 10.62500000000000200 ) ;
#147 = PRESENTATION_STYLE_ASSIGNMENT (( #194 ) ) ;
#148 = EDGE_CURVE ( 'NONE', #64, #145, #180, .T. ) ;
#149 = CIRCLE ( 'NONE', #127, 10.62500000000000200 ) ;
#150 = CARTESIAN_POINT ( 'NONE',  ( 8.000000000000000000, 0.0000000000000000000, -2.000000000000000000 ) ) ;
#151 = PRESENTATION_LAYER_ASSIGNMENT (  '', '', ( #213 ) ) ;
#152 = EDGE_LOOP ( 'NONE', ( #109, #181, #163, #68 ) ) ;
#153 = DIRECTION ( 'NONE',  ( 1.000000000000000000, 0.0000000000000000000, 0.0000000000000000000 ) ) ;
#154 = CARTESIAN_POINT ( 'NONE',  ( -8.000000000000000000, 9.797174393178825700E-016, -2.000000000000000000 ) ) ;
#155 = CARTESIAN_POINT ( 'NONE',  ( 0.0000000000000000000, 0.0000000000000000000, 0.0000000000000000000 ) ) ;
#156 = APPLICATION_PROTOCOL_DEFINITION ( 'draft international standard', 'automotive_design', 1998, #45 ) ;
#157 = DIRECTION ( 'NONE',  ( 0.0000000000000000000, 0.0000000000000000000, 1.000000000000000000 ) ) ;
#158 = EDGE_LOOP ( 'NONE', ( #99, #132 ) ) ;
#159 = DIRECTION ( 'NONE',  ( 1.000000000000000000, 0.0000000000000000000, 0.0000000000000000000 ) ) ;
#160 = EDGE_CURVE ( 'NONE', #125, #50, #176, .T. ) ;
#161 = COLOUR_RGB ( '',0.7254901960784313500, 0.4470588235294117300, 0.3686274509803921800 ) ;
#162 = PRESENTATION_STYLE_ASSIGNMENT (( #171 ) ) ;
#163 = ORIENTED_EDGE ( 'NONE', *, *, #207, .F. ) ;
#164 = AXIS2_PLACEMENT_3D ( 'NONE', #142, #31, #159 ) ;
#165 = ADVANCED_FACE ( 'NONE', ( #123 ), #131, .T. ) ;
#166 = VERTEX_POINT ( 'NONE', #126 ) ;
#167 = DIRECTION ( 'NONE',  ( 0.0000000000000000000, 0.0000000000000000000, 1.000000000000000000 ) ) ;
#168 = SURFACE_STYLE_FILL_AREA ( #175 ) ;
#169 = CARTESIAN_POINT ( 'NONE',  ( 10.62500000000000200, 0.0000000000000000000, -2.000000000000000000 ) ) ;
#170 = DIRECTION ( 'NONE',  ( 1.000000000000000000, 0.0000000000000000000, -0.0000000000000000000 ) ) ;
#171 = SURFACE_STYLE_USAGE ( .BOTH. , #60 ) ;
#172 = EDGE_CURVE ( 'NONE', #125, #64, #51, .T. ) ;
#173 = DIRECTION ( 'NONE',  ( 1.000000000000000000, 0.0000000000000000000, 0.0000000000000000000 ) ) ;
#174 = PRODUCT_DEFINITION_CONTEXT ( 'detailed design', #45, 'design' ) ;
#175 = FILL_AREA_STYLE ('',( #62 ) ) ;
#176 = CIRCLE ( 'NONE', #6, 8.000000000000000000 ) ;
#177 = ORIENTED_EDGE ( 'NONE', *, *, #12, .F. ) ;
#178 = AXIS2_PLACEMENT_3D ( 'NONE', #91, #209, #106 ) ;
#179 =( NAMED_UNIT ( * ) SI_UNIT ( $, .STERADIAN. ) SOLID_ANGLE_UNIT ( ) );
#180 = CIRCLE ( 'NONE', #52, 8.000000000000000000 ) ;
#181 = ORIENTED_EDGE ( 'NONE', *, *, #198, .T. ) ;
#182 = CYLINDRICAL_SURFACE ( 'NONE', #42, 8.000000000000000000 ) ;
#183 = EDGE_CURVE ( 'NONE', #96, #80, #189, .T. ) ;
#184 = ORIENTED_EDGE ( 'NONE', *, *, #183, .F. ) ;
#185 = ADVANCED_FACE ( 'NONE', ( #79 ), #8, .T. ) ;
#186 = CARTESIAN_POINT ( 'NONE',  ( 0.0000000000000000000, 0.0000000000000000000, -2.000000000000000000 ) ) ;
#187 = DIRECTION ( 'NONE',  ( 0.0000000000000000000, 0.0000000000000000000, 1.000000000000000000 ) ) ;
#188 = AXIS2_PLACEMENT_3D ( 'NONE', #76, #25, #192 ) ;
#189 = CIRCLE ( 'NONE', #199, 10.62500000000000200 ) ;
#190 = DIRECTION ( 'NONE',  ( 0.0000000000000000000, 0.0000000000000000000, 1.000000000000000000 ) ) ;
#191 = FACE_OUTER_BOUND ( 'NONE', #16, .T. ) ;
#192 = DIRECTION ( 'NONE',  ( 1.000000000000000000, 0.0000000000000000000, 0.0000000000000000000 ) ) ;
#193 = CARTESIAN_POINT ( 'NONE',  ( 0.0000000000000000000, 0.0000000000000000000, 0.0000000000000000000 ) ) ;
#194 = SURFACE_STYLE_USAGE ( .BOTH. , #77 ) ;
#195 = ORIENTED_EDGE ( 'NONE', *, *, #35, .F. ) ;
#196 = MANIFOLD_SOLID_BREP ( 'Aufsatz-Linear austragen1', #108 ) ;
#197 = VECTOR ( 'NONE', #201, 1000.000000000000000 ) ;
#198 = EDGE_CURVE ( 'NONE', #80, #72, #39, .T. ) ;
#199 = AXIS2_PLACEMENT_3D ( 'NONE', #65, #157, #46 ) ;
#200 = ORIENTED_EDGE ( 'NONE', *, *, #160, .T. ) ;
#201 = DIRECTION ( 'NONE',  ( 0.0000000000000000000, 0.0000000000000000000, 1.000000000000000000 ) ) ;
#202 = DIRECTION ( 'NONE',  ( 1.000000000000000000, 0.0000000000000000000, 0.0000000000000000000 ) ) ;
#203 = ORIENTED_EDGE ( 'NONE', *, *, #49, .F. ) ;
#204 = CARTESIAN_POINT ( 'NONE',  ( -10.62500000000000200, 1.301187224094063100E-015, -2.000000000000000000 ) ) ;
#205 =( LENGTH_UNIT ( ) NAMED_UNIT ( * ) SI_UNIT ( .MILLI., .METRE. ) );
#206 = CARTESIAN_POINT ( 'NONE',  ( -8.000000000000000000, 9.797174393178825700E-016, -2.000000000000000000 ) ) ;
#207 = EDGE_CURVE ( 'NONE', #166, #72, #119, .T. ) ;
#208 = DIRECTION ( 'NONE',  ( 0.0000000000000000000, 0.0000000000000000000, 1.000000000000000000 ) ) ;
#209 = DIRECTION ( 'NONE',  ( 0.0000000000000000000, 0.0000000000000000000, 1.000000000000000000 ) ) ;
#210 =( NAMED_UNIT ( * ) PLANE_ANGLE_UNIT ( ) SI_UNIT ( $, .RADIAN. ) );
#211 = ORIENTED_EDGE ( 'NONE', *, *, #49, .T. ) ;
#212 = VECTOR ( 'NONE', #20, 1000.000000000000000 ) ;
#213 = STYLED_ITEM ( 'NONE', ( #162 ), #196 ) ;
#214 = DIRECTION ( 'NONE',  ( 1.000000000000000000, 0.0000000000000000000, 0.0000000000000000000 ) ) ;
ENDSEC;
END-ISO-10303-21;
