ISO-10303-21;
HEADER;
FILE_DESCRIPTION (( 'STEP AP214' ),
    '1' );
FILE_NAME ('402DFL040-S1.step',
    '2017-07-07T09:57:41',
    ( 'install' ),
    ( '' ),
    'SwSTEP 2.0',
    'SolidWorks 2015',
    '' );
FILE_SCHEMA (( 'AUTOMOTIVE_DESIGN' ));
ENDSEC;

DATA;
#1 = DIRECTION ( 'NONE',  ( 0.0000000000000000000, 0.0000000000000000000, 1.000000000000000000 ) ) ;
#2 = AXIS2_PLACEMENT_3D ( 'NONE', #198, #99, #5 ) ;
#3 = PRODUCT_DEFINITION ( 'UNKNOWN', '', #10, #171 ) ;
#4 = CARTESIAN_POINT ( 'NONE',  ( 0.0000000000000000000, 0.0000000000000000000, -3.000000000000000000 ) ) ;
#5 = DIRECTION ( 'NONE',  ( 1.000000000000000000, 0.0000000000000000000, 0.0000000000000000000 ) ) ;
#6 =( NAMED_UNIT ( * ) SI_UNIT ( $, .STERADIAN. ) SOLID_ANGLE_UNIT ( ) );
#7 = CIRCLE ( 'NONE', #153, 24.10000000000000100 ) ;
#8 = EDGE_CURVE ( 'NONE', #145, #158, #207, .T. ) ;
#9 = ORIENTED_EDGE ( 'NONE', *, *, #89, .T. ) ;
#10 = PRODUCT_DEFINITION_FORMATION_WITH_SPECIFIED_SOURCE ( 'ANY', '', #39, .NOT_KNOWN. ) ;
#11 = VERTEX_POINT ( 'NONE', #43 ) ;
#12 = DIRECTION ( 'NONE',  ( 1.000000000000000000, 0.0000000000000000000, 0.0000000000000000000 ) ) ;
#13 = DIRECTION ( 'NONE',  ( 1.000000000000000000, 0.0000000000000000000, 0.0000000000000000000 ) ) ;
#14 = ORIENTED_EDGE ( 'NONE', *, *, #209, .F. ) ;
#15 = CARTESIAN_POINT ( 'NONE',  ( 0.0000000000000000000, 0.0000000000000000000, 0.0000000000000000000 ) ) ;
#16 = CYLINDRICAL_SURFACE ( 'NONE', #166, 18.39999999999999900 ) ;
#17 = CARTESIAN_POINT ( 'NONE',  ( -24.10000000000000100, 2.951398785945121300E-015, 0.0000000000000000000 ) ) ;
#18 = DIRECTION ( 'NONE',  ( 1.000000000000000000, 0.0000000000000000000, -0.0000000000000000000 ) ) ;
#19 =( NAMED_UNIT ( * ) PLANE_ANGLE_UNIT ( ) SI_UNIT ( $, .RADIAN. ) );
#20 = EDGE_CURVE ( 'NONE', #136, #158, #151, .T. ) ;
#21 = DIRECTION ( 'NONE',  ( 0.0000000000000000000, 0.0000000000000000000, 1.000000000000000000 ) ) ;
#22 = FACE_OUTER_BOUND ( 'NONE', #141, .T. ) ;
#23 = ORIENTED_EDGE ( 'NONE', *, *, #209, .T. ) ;
#24 = FACE_BOUND ( 'NONE', #197, .T. ) ;
#25 = ORIENTED_EDGE ( 'NONE', *, *, #81, .T. ) ;
#26 = PRODUCT_RELATED_PRODUCT_CATEGORY ( 'part', '', ( #39 ) ) ;
#27 = CIRCLE ( 'NONE', #204, 18.39999999999999900 ) ;
#28 = ORIENTED_EDGE ( 'NONE', *, *, #64, .T. ) ;
#29 = ADVANCED_FACE ( 'NONE', ( #62 ), #212, .T. ) ;
#30 = CARTESIAN_POINT ( 'NONE',  ( -24.10000000000000100, 2.951398785945121300E-015, -3.000000000000000000 ) ) ;
#31 = EDGE_CURVE ( 'NONE', #184, #136, #202, .T. ) ;
#32 = DIRECTION ( 'NONE',  ( 1.000000000000000000, 0.0000000000000000000, 0.0000000000000000000 ) ) ;
#33 = SURFACE_SIDE_STYLE ('',( #156 ) ) ;
#34 = CARTESIAN_POINT ( 'NONE',  ( 18.39999999999999900, 0.0000000000000000000, -3.000000000000000000 ) ) ;
#35 = DIRECTION ( 'NONE',  ( 1.000000000000000000, 0.0000000000000000000, 0.0000000000000000000 ) ) ;
#36 = CLOSED_SHELL ( 'NONE', ( #108, #174, #29, #189, #42, #121 ) ) ;
#37 = FILL_AREA_STYLE_COLOUR ( '', #122 ) ;
#38 = PRODUCT_CONTEXT ( 'NONE', #167, 'mechanical' ) ;
#39 = PRODUCT ( '402DFL040-S1', '402DFL040-S1', '', ( #38 ) ) ;
#40 = VERTEX_POINT ( 'NONE', #139 ) ;
#41 = EDGE_CURVE ( 'NONE', #145, #184, #7, .T. ) ;
#42 = ADVANCED_FACE ( 'NONE', ( #172, #22 ), #123, .T. ) ;
#43 = CARTESIAN_POINT ( 'NONE',  ( -18.39999999999999900, 2.253350110431129600E-015, -3.000000000000000000 ) ) ;
#44 = CARTESIAN_POINT ( 'NONE',  ( 24.10000000000000100, 0.0000000000000000000, -3.000000000000000000 ) ) ;
#45 =( LENGTH_UNIT ( ) NAMED_UNIT ( * ) SI_UNIT ( .MILLI., .METRE. ) );
#46 = AXIS2_PLACEMENT_3D ( 'NONE', #164, #71, #214 ) ;
#47 = DIRECTION ( 'NONE',  ( 0.0000000000000000000, 0.0000000000000000000, 1.000000000000000000 ) ) ;
#48 = DIRECTION ( 'NONE',  ( 1.000000000000000000, 0.0000000000000000000, 0.0000000000000000000 ) ) ;
#49 = PRESENTATION_LAYER_ASSIGNMENT (  '', '', ( #131 ) ) ;
#50 = CARTESIAN_POINT ( 'NONE',  ( -18.39999999999999900, 2.253350110431129600E-015, -3.000000000000000000 ) ) ;
#51 = PRODUCT_DEFINITION_SHAPE ( 'NONE', 'NONE',  #3 ) ;
#52 = EDGE_CURVE ( 'NONE', #158, #136, #191, .T. ) ;
#53 = APPLICATION_PROTOCOL_DEFINITION ( 'draft international standard', 'automotive_design', 1998, #148 ) ;
#54 = ORIENTED_EDGE ( 'NONE', *, *, #8, .F. ) ;
#55 = LINE ( 'NONE', #50, #188 ) ;
#56 = MANIFOLD_SOLID_BREP ( 'Aufsatz-Linear austragen1', #36 ) ;
#57 = AXIS2_PLACEMENT_3D ( 'NONE', #142, #96, #48 ) ;
#58 = COLOUR_RGB ( '',0.3843137254901960500, 0.3843137254901960500, 0.3843137254901960500 ) ;
#59 = AXIS2_PLACEMENT_3D ( 'NONE', #4, #116, #18 ) ;
#60 = ORIENTED_EDGE ( 'NONE', *, *, #103, .F. ) ;
#61 = CIRCLE ( 'NONE', #2, 24.10000000000000100 ) ;
#62 = FACE_OUTER_BOUND ( 'NONE', #101, .T. ) ;
#63 = ORIENTED_EDGE ( 'NONE', *, *, #52, .T. ) ;
#64 = EDGE_CURVE ( 'NONE', #133, #11, #114, .T. ) ;
#65 = FILL_AREA_STYLE ('',( #206 ) ) ;
#66 =( NAMED_UNIT ( * ) SI_UNIT ( $, .STERADIAN. ) SOLID_ANGLE_UNIT ( ) );
#67 = VERTEX_POINT ( 'NONE', #84 ) ;
#68 = DIRECTION ( 'NONE',  ( 0.0000000000000000000, 0.0000000000000000000, 1.000000000000000000 ) ) ;
#69 = FACE_OUTER_BOUND ( 'NONE', #95, .T. ) ;
#70 = DIRECTION ( 'NONE',  ( 0.0000000000000000000, 0.0000000000000000000, 1.000000000000000000 ) ) ;
#71 = DIRECTION ( 'NONE',  ( 0.0000000000000000000, 0.0000000000000000000, 1.000000000000000000 ) ) ;
#72 = ORIENTED_EDGE ( 'NONE', *, *, #41, .T. ) ;
#73 = FILL_AREA_STYLE ('',( #37 ) ) ;
#74 =( GEOMETRIC_REPRESENTATION_CONTEXT ( 3 ) GLOBAL_UNCERTAINTY_ASSIGNED_CONTEXT ( ( #126 ) ) GLOBAL_UNIT_ASSIGNED_CONTEXT ( ( #117, #19, #129 ) ) REPRESENTATION_CONTEXT ( 'NONE', 'WORKASPACE' ) );
#75 = CIRCLE ( 'NONE', #190, 18.39999999999999900 ) ;
#76 = CARTESIAN_POINT ( 'NONE',  ( 0.0000000000000000000, 0.0000000000000000000, 0.0000000000000000000 ) ) ;
#77 = ORIENTED_EDGE ( 'NONE', *, *, #31, .T. ) ;
#78 = ORIENTED_EDGE ( 'NONE', *, *, #93, .F. ) ;
#79 = VECTOR ( 'NONE', #160, 1000.000000000000000 ) ;
#80 = ORIENTED_EDGE ( 'NONE', *, *, #31, .F. ) ;
#81 = EDGE_CURVE ( 'NONE', #40, #67, #155, .T. ) ;
#82 = ORIENTED_EDGE ( 'NONE', *, *, #41, .F. ) ;
#83 =( GEOMETRIC_REPRESENTATION_CONTEXT ( 3 ) GLOBAL_UNCERTAINTY_ASSIGNED_CONTEXT ( ( #91 ) ) GLOBAL_UNIT_ASSIGNED_CONTEXT ( ( #45, #161, #66 ) ) REPRESENTATION_CONTEXT ( 'NONE', 'WORKASPACE' ) );
#84 = CARTESIAN_POINT ( 'NONE',  ( -18.39999999999999900, 2.253350110431129600E-015, 0.0000000000000000000 ) ) ;
#85 = DIRECTION ( 'NONE',  ( 1.000000000000000000, 0.0000000000000000000, 0.0000000000000000000 ) ) ;
#86 = PLANE ( 'NONE',  #59 ) ;
#87 = PRESENTATION_STYLE_ASSIGNMENT (( #88 ) ) ;
#88 = SURFACE_STYLE_USAGE ( .BOTH. , #183 ) ;
#89 = EDGE_CURVE ( 'NONE', #133, #40, #195, .T. ) ;
#90 = MECHANICAL_DESIGN_GEOMETRIC_PRESENTATION_REPRESENTATION (  '', ( #110 ), #83 ) ;
#91 = UNCERTAINTY_MEASURE_WITH_UNIT (LENGTH_MEASURE( 1.000000000000000100E-005 ), #45, 'distance_accuracy_value', 'NONE');
#92 = CARTESIAN_POINT ( 'NONE',  ( 0.0000000000000000000, 0.0000000000000000000, 0.0000000000000000000 ) ) ;
#93 = EDGE_CURVE ( 'NONE', #67, #40, #75, .T. ) ;
#94 = CARTESIAN_POINT ( 'NONE',  ( 0.0000000000000000000, 0.0000000000000000000, -3.000000000000000000 ) ) ;
#95 = EDGE_LOOP ( 'NONE', ( #175, #149, #9, #25 ) ) ;
#96 = DIRECTION ( 'NONE',  ( 0.0000000000000000000, 0.0000000000000000000, 1.000000000000000000 ) ) ;
#97 = CARTESIAN_POINT ( 'NONE',  ( 24.10000000000000100, 0.0000000000000000000, -3.000000000000000000 ) ) ;
#98 = PRESENTATION_LAYER_ASSIGNMENT (  '', '', ( #110 ) ) ;
#99 = DIRECTION ( 'NONE',  ( 0.0000000000000000000, 0.0000000000000000000, 1.000000000000000000 ) ) ;
#100 =( NAMED_UNIT ( * ) PLANE_ANGLE_UNIT ( ) SI_UNIT ( $, .RADIAN. ) );
#101 = EDGE_LOOP ( 'NONE', ( #54, #72, #77, #134 ) ) ;
#102 = CYLINDRICAL_SURFACE ( 'NONE', #57, 18.39999999999999900 ) ;
#103 = EDGE_CURVE ( 'NONE', #11, #133, #27, .T. ) ;
#104 = DIRECTION ( 'NONE',  ( 0.0000000000000000000, 0.0000000000000000000, 1.000000000000000000 ) ) ;
#105 = EDGE_LOOP ( 'NONE', ( #14, #82 ) ) ;
#106 = FACE_OUTER_BOUND ( 'NONE', #192, .T. ) ;
#107 = ORIENTED_EDGE ( 'NONE', *, *, #20, .F. ) ;
#108 = ADVANCED_FACE ( 'NONE', ( #106 ), #102, .F. ) ;
#109 = EDGE_LOOP ( 'NONE', ( #23, #120, #107, #80 ) ) ;
#110 = STYLED_ITEM ( 'NONE', ( #127 ), #56 ) ;
#111 = DIRECTION ( 'NONE',  ( 1.000000000000000000, 0.0000000000000000000, 0.0000000000000000000 ) ) ;
#112 = DIRECTION ( 'NONE',  ( 1.000000000000000000, 0.0000000000000000000, 0.0000000000000000000 ) ) ;
#113 = DIRECTION ( 'NONE',  ( 0.0000000000000000000, 0.0000000000000000000, 1.000000000000000000 ) ) ;
#114 = CIRCLE ( 'NONE', #168, 18.39999999999999900 ) ;
#115 = CARTESIAN_POINT ( 'NONE',  ( -24.10000000000000100, 2.951398785945121300E-015, -3.000000000000000000 ) ) ;
#116 = DIRECTION ( 'NONE',  ( 0.0000000000000000000, 0.0000000000000000000, 1.000000000000000000 ) ) ;
#117 =( LENGTH_UNIT ( ) NAMED_UNIT ( * ) SI_UNIT ( .MILLI., .METRE. ) );
#118 = VECTOR ( 'NONE', #208, 1000.000000000000000 ) ;
#119 = AXIS2_PLACEMENT_3D ( 'NONE', #194, #104, #154 ) ;
#120 = ORIENTED_EDGE ( 'NONE', *, *, #8, .T. ) ;
#121 = ADVANCED_FACE ( 'NONE', ( #69 ), #16, .F. ) ;
#122 = COLOUR_RGB ( '',0.3843137254901960500, 0.3843137254901960500, 0.3843137254901960500 ) ;
#123 = PLANE ( 'NONE',  #119 ) ;
#124 = DIRECTION ( 'NONE',  ( 0.0000000000000000000, 0.0000000000000000000, 1.000000000000000000 ) ) ;
#125 = CARTESIAN_POINT ( 'NONE',  ( 18.39999999999999900, 0.0000000000000000000, -3.000000000000000000 ) ) ;
#126 = UNCERTAINTY_MEASURE_WITH_UNIT (LENGTH_MEASURE( 1.000000000000000100E-005 ), #117, 'distance_accuracy_value', 'NONE');
#127 = PRESENTATION_STYLE_ASSIGNMENT (( #140 ) ) ;
#128 = AXIS2_PLACEMENT_3D ( 'NONE', #76, #177, #32 ) ;
#129 =( NAMED_UNIT ( * ) SI_UNIT ( $, .STERADIAN. ) SOLID_ANGLE_UNIT ( ) );
#130 = DIRECTION ( 'NONE',  ( 1.000000000000000000, 0.0000000000000000000, 0.0000000000000000000 ) ) ;
#131 = STYLED_ITEM ( 'NONE', ( #87 ), #170 ) ;
#132 = ORIENTED_EDGE ( 'NONE', *, *, #103, .T. ) ;
#133 = VERTEX_POINT ( 'NONE', #125 ) ;
#134 = ORIENTED_EDGE ( 'NONE', *, *, #52, .F. ) ;
#135 = CYLINDRICAL_SURFACE ( 'NONE', #46, 24.10000000000000100 ) ;
#136 = VERTEX_POINT ( 'NONE', #144 ) ;
#137 = AXIS2_PLACEMENT_3D ( 'NONE', #138, #159, #12 ) ;
#138 = CARTESIAN_POINT ( 'NONE',  ( 0.0000000000000000000, 0.0000000000000000000, -3.000000000000000000 ) ) ;
#139 = CARTESIAN_POINT ( 'NONE',  ( 18.39999999999999900, 0.0000000000000000000, 0.0000000000000000000 ) ) ;
#140 = SURFACE_STYLE_USAGE ( .BOTH. , #33 ) ;
#141 = EDGE_LOOP ( 'NONE', ( #187, #63 ) ) ;
#142 = CARTESIAN_POINT ( 'NONE',  ( 0.0000000000000000000, 0.0000000000000000000, -3.000000000000000000 ) ) ;
#143 = FACE_OUTER_BOUND ( 'NONE', #109, .T. ) ;
#144 = CARTESIAN_POINT ( 'NONE',  ( 24.10000000000000100, 0.0000000000000000000, 0.0000000000000000000 ) ) ;
#145 = VERTEX_POINT ( 'NONE', #115 ) ;
#146 = CARTESIAN_POINT ( 'NONE',  ( 0.0000000000000000000, 0.0000000000000000000, 0.0000000000000000000 ) ) ;
#147 = APPLICATION_PROTOCOL_DEFINITION ( 'draft international standard', 'automotive_design', 1998, #167 ) ;
#148 = APPLICATION_CONTEXT ( 'automotive_design' ) ;
#149 = ORIENTED_EDGE ( 'NONE', *, *, #64, .F. ) ;
#150 = VECTOR ( 'NONE', #47, 1000.000000000000000 ) ;
#151 = CIRCLE ( 'NONE', #186, 24.10000000000000100 ) ;
#152 = ORIENTED_EDGE ( 'NONE', *, *, #93, .T. ) ;
#153 = AXIS2_PLACEMENT_3D ( 'NONE', #94, #211, #112 ) ;
#154 = DIRECTION ( 'NONE',  ( 1.000000000000000000, 0.0000000000000000000, -0.0000000000000000000 ) ) ;
#155 = CIRCLE ( 'NONE', #182, 18.39999999999999900 ) ;
#156 = SURFACE_STYLE_FILL_AREA ( #65 ) ;
#157 = MECHANICAL_DESIGN_GEOMETRIC_PRESENTATION_REPRESENTATION (  '', ( #131 ), #169 ) ;
#158 = VERTEX_POINT ( 'NONE', #17 ) ;
#159 = DIRECTION ( 'NONE',  ( 0.0000000000000000000, 0.0000000000000000000, 1.000000000000000000 ) ) ;
#160 = DIRECTION ( 'NONE',  ( 0.0000000000000000000, 0.0000000000000000000, 1.000000000000000000 ) ) ;
#161 =( NAMED_UNIT ( * ) PLANE_ANGLE_UNIT ( ) SI_UNIT ( $, .RADIAN. ) );
#162 = CARTESIAN_POINT ( 'NONE',  ( 0.0000000000000000000, 0.0000000000000000000, 0.0000000000000000000 ) ) ;
#163 = CARTESIAN_POINT ( 'NONE',  ( 0.0000000000000000000, 0.0000000000000000000, -3.000000000000000000 ) ) ;
#164 = CARTESIAN_POINT ( 'NONE',  ( 0.0000000000000000000, 0.0000000000000000000, -3.000000000000000000 ) ) ;
#165 = DIRECTION ( 'NONE',  ( 0.0000000000000000000, 0.0000000000000000000, 1.000000000000000000 ) ) ;
#166 = AXIS2_PLACEMENT_3D ( 'NONE', #196, #1, #85 ) ;
#167 = APPLICATION_CONTEXT ( 'automotive_design' ) ;
#168 = AXIS2_PLACEMENT_3D ( 'NONE', #213, #113, #13 ) ;
#169 =( GEOMETRIC_REPRESENTATION_CONTEXT ( 3 ) GLOBAL_UNCERTAINTY_ASSIGNED_CONTEXT ( ( #193 ) ) GLOBAL_UNIT_ASSIGNED_CONTEXT ( ( #201, #100, #6 ) ) REPRESENTATION_CONTEXT ( 'NONE', 'WORKASPACE' ) );
#170 = ADVANCED_BREP_SHAPE_REPRESENTATION ( '402DFL040-S1', ( #56, #205 ), #74 ) ;
#171 = PRODUCT_DEFINITION_CONTEXT ( 'detailed design', #148, 'design' ) ;
#172 = FACE_BOUND ( 'NONE', #179, .T. ) ;
#173 = ORIENTED_EDGE ( 'NONE', *, *, #89, .F. ) ;
#174 = ADVANCED_FACE ( 'NONE', ( #143 ), #135, .T. ) ;
#175 = ORIENTED_EDGE ( 'NONE', *, *, #200, .F. ) ;
#176 = ORIENTED_EDGE ( 'NONE', *, *, #81, .F. ) ;
#177 = DIRECTION ( 'NONE',  ( 0.0000000000000000000, 0.0000000000000000000, 1.000000000000000000 ) ) ;
#178 = DIRECTION ( 'NONE',  ( 1.000000000000000000, 0.0000000000000000000, 0.0000000000000000000 ) ) ;
#179 = EDGE_LOOP ( 'NONE', ( #176, #78 ) ) ;
#180 = DIRECTION ( 'NONE',  ( 1.000000000000000000, 0.0000000000000000000, 0.0000000000000000000 ) ) ;
#181 = SURFACE_STYLE_FILL_AREA ( #73 ) ;
#182 = AXIS2_PLACEMENT_3D ( 'NONE', #162, #68, #178 ) ;
#183 = SURFACE_SIDE_STYLE ('',( #181 ) ) ;
#184 = VERTEX_POINT ( 'NONE', #97 ) ;
#185 = FACE_OUTER_BOUND ( 'NONE', #105, .T. ) ;
#186 = AXIS2_PLACEMENT_3D ( 'NONE', #92, #210, #111 ) ;
#187 = ORIENTED_EDGE ( 'NONE', *, *, #20, .T. ) ;
#188 = VECTOR ( 'NONE', #165, 1000.000000000000000 ) ;
#189 = ADVANCED_FACE ( 'NONE', ( #24, #185 ), #86, .F. ) ;
#190 = AXIS2_PLACEMENT_3D ( 'NONE', #15, #124, #35 ) ;
#191 = CIRCLE ( 'NONE', #128, 24.10000000000000100 ) ;
#192 = EDGE_LOOP ( 'NONE', ( #60, #203, #152, #173 ) ) ;
#193 = UNCERTAINTY_MEASURE_WITH_UNIT (LENGTH_MEASURE( 1.000000000000000100E-005 ), #201, 'distance_accuracy_value', 'NONE');
#194 = CARTESIAN_POINT ( 'NONE',  ( 0.0000000000000000000, 0.0000000000000000000, 0.0000000000000000000 ) ) ;
#195 = LINE ( 'NONE', #34, #150 ) ;
#196 = CARTESIAN_POINT ( 'NONE',  ( 0.0000000000000000000, 0.0000000000000000000, -3.000000000000000000 ) ) ;
#197 = EDGE_LOOP ( 'NONE', ( #28, #132 ) ) ;
#198 = CARTESIAN_POINT ( 'NONE',  ( 0.0000000000000000000, 0.0000000000000000000, -3.000000000000000000 ) ) ;
#199 = SHAPE_DEFINITION_REPRESENTATION ( #51, #170 ) ;
#200 = EDGE_CURVE ( 'NONE', #11, #67, #55, .T. ) ;
#201 =( LENGTH_UNIT ( ) NAMED_UNIT ( * ) SI_UNIT ( .MILLI., .METRE. ) );
#202 = LINE ( 'NONE', #44, #79 ) ;
#203 = ORIENTED_EDGE ( 'NONE', *, *, #200, .T. ) ;
#204 = AXIS2_PLACEMENT_3D ( 'NONE', #163, #70, #180 ) ;
#205 = AXIS2_PLACEMENT_3D ( 'NONE', #146, #21, #130 ) ;
#206 = FILL_AREA_STYLE_COLOUR ( '', #58 ) ;
#207 = LINE ( 'NONE', #30, #118 ) ;
#208 = DIRECTION ( 'NONE',  ( 0.0000000000000000000, 0.0000000000000000000, 1.000000000000000000 ) ) ;
#209 = EDGE_CURVE ( 'NONE', #184, #145, #61, .T. ) ;
#210 = DIRECTION ( 'NONE',  ( 0.0000000000000000000, 0.0000000000000000000, 1.000000000000000000 ) ) ;
#211 = DIRECTION ( 'NONE',  ( 0.0000000000000000000, 0.0000000000000000000, 1.000000000000000000 ) ) ;
#212 = CYLINDRICAL_SURFACE ( 'NONE', #137, 24.10000000000000100 ) ;
#213 = CARTESIAN_POINT ( 'NONE',  ( 0.0000000000000000000, 0.0000000000000000000, -3.000000000000000000 ) ) ;
#214 = DIRECTION ( 'NONE',  ( 1.000000000000000000, 0.0000000000000000000, 0.0000000000000000000 ) ) ;
ENDSEC;
END-ISO-10303-21;
