ISO-10303-21;
HEADER;
FILE_DESCRIPTION (( 'STEP AP214' ),
    '1' );
FILE_NAME ('402DFL016-S1.step',
    '2017-07-07T09:57:45',
    ( 'install' ),
    ( '' ),
    'SwSTEP 2.0',
    'SolidWorks 2015',
    '' );
FILE_SCHEMA (( 'AUTOMOTIVE_DESIGN' ));
ENDSEC;

DATA;
#1 = ORIENTED_EDGE ( 'NONE', *, *, #106, .F. ) ;
#2 = PLANE ( 'NONE',  #25 ) ;
#3 = ORIENTED_EDGE ( 'NONE', *, *, #106, .T. ) ;
#4 = PRODUCT_DEFINITION_SHAPE ( 'NONE', 'NONE',  #32 ) ;
#5 = SURFACE_STYLE_USAGE ( .BOTH. , #102 ) ;
#6 =( NAMED_UNIT ( * ) PLANE_ANGLE_UNIT ( ) SI_UNIT ( $, .RADIAN. ) );
#7 = DIRECTION ( 'NONE',  ( 0.0000000000000000000, 0.0000000000000000000, 1.000000000000000000 ) ) ;
#8 = DIRECTION ( 'NONE',  ( 0.0000000000000000000, 0.0000000000000000000, 1.000000000000000000 ) ) ;
#9 = LINE ( 'NONE', #121, #37 ) ;
#10 = EDGE_CURVE ( 'NONE', #11, #124, #194, .T. ) ;
#11 = VERTEX_POINT ( 'NONE', #209 ) ;
#12 = CYLINDRICAL_SURFACE ( 'NONE', #78, 10.69999999999999900 ) ;
#13 = AXIS2_PLACEMENT_3D ( 'NONE', #38, #148, #52 ) ;
#14 = EDGE_LOOP ( 'NONE', ( #142, #66, #131, #61 ) ) ;
#15 = ADVANCED_FACE ( 'NONE', ( #77 ), #113, .T. ) ;
#16 = COLOUR_RGB ( '',0.3843137254901960500, 0.3843137254901960500, 0.3843137254901960500 ) ;
#17 = CARTESIAN_POINT ( 'NONE',  ( 10.69999999999999900, 0.0000000000000000000, 0.0000000000000000000 ) ) ;
#18 = CIRCLE ( 'NONE', #35, 8.099999999999999600 ) ;
#19 = AXIS2_PLACEMENT_3D ( 'NONE', #117, #8, #122 ) ;
#20 = EDGE_LOOP ( 'NONE', ( #50, #54 ) ) ;
#21 = DIRECTION ( 'NONE',  ( 0.0000000000000000000, 0.0000000000000000000, 1.000000000000000000 ) ) ;
#22 =( NAMED_UNIT ( * ) PLANE_ANGLE_UNIT ( ) SI_UNIT ( $, .RADIAN. ) );
#23 = CARTESIAN_POINT ( 'NONE',  ( 0.0000000000000000000, 0.0000000000000000000, -3.000000000000000000 ) ) ;
#24 = PRODUCT_CONTEXT ( 'NONE', #153, 'mechanical' ) ;
#25 = AXIS2_PLACEMENT_3D ( 'NONE', #163, #82, #197 ) ;
#26 = CARTESIAN_POINT ( 'NONE',  ( -10.69999999999999900, 1.310372075087667900E-015, -3.000000000000000000 ) ) ;
#27 = LINE ( 'NONE', #127, #107 ) ;
#28 = VERTEX_POINT ( 'NONE', #158 ) ;
#29 = DIRECTION ( 'NONE',  ( 0.0000000000000000000, 0.0000000000000000000, 1.000000000000000000 ) ) ;
#30 = CYLINDRICAL_SURFACE ( 'NONE', #176, 8.099999999999999600 ) ;
#31 = ORIENTED_EDGE ( 'NONE', *, *, #114, .T. ) ;
#32 = PRODUCT_DEFINITION ( 'UNKNOWN', '', #46, #96 ) ;
#33 = ADVANCED_FACE ( 'NONE', ( #189 ), #30, .F. ) ;
#34 = DIRECTION ( 'NONE',  ( 0.0000000000000000000, 0.0000000000000000000, 1.000000000000000000 ) ) ;
#35 = AXIS2_PLACEMENT_3D ( 'NONE', #116, #21, #130 ) ;
#36 = CARTESIAN_POINT ( 'NONE',  ( 0.0000000000000000000, 0.0000000000000000000, -3.000000000000000000 ) ) ;
#37 = VECTOR ( 'NONE', #92, 1000.000000000000000 ) ;
#38 = CARTESIAN_POINT ( 'NONE',  ( 0.0000000000000000000, 0.0000000000000000000, -3.000000000000000000 ) ) ;
#39 = CARTESIAN_POINT ( 'NONE',  ( 0.0000000000000000000, 0.0000000000000000000, -3.000000000000000000 ) ) ;
#40 = CARTESIAN_POINT ( 'NONE',  ( 0.0000000000000000000, 0.0000000000000000000, 0.0000000000000000000 ) ) ;
#41 = ORIENTED_EDGE ( 'NONE', *, *, #213, .T. ) ;
#42 = EDGE_CURVE ( 'NONE', #119, #137, #9, .T. ) ;
#43 = APPLICATION_PROTOCOL_DEFINITION ( 'draft international standard', 'automotive_design', 1998, #135 ) ;
#44 = ORIENTED_EDGE ( 'NONE', *, *, #42, .F. ) ;
#45 = DIRECTION ( 'NONE',  ( 0.0000000000000000000, 0.0000000000000000000, 1.000000000000000000 ) ) ;
#46 = PRODUCT_DEFINITION_FORMATION_WITH_SPECIFIED_SOURCE ( 'ANY', '', #68, .NOT_KNOWN. ) ;
#47 = ORIENTED_EDGE ( 'NONE', *, *, #91, .F. ) ;
#48 = DIRECTION ( 'NONE',  ( 1.000000000000000000, 0.0000000000000000000, 0.0000000000000000000 ) ) ;
#49 = AXIS2_PLACEMENT_3D ( 'NONE', #40, #152, #55 ) ;
#50 = ORIENTED_EDGE ( 'NONE', *, *, #10, .F. ) ;
#51 = DIRECTION ( 'NONE',  ( 1.000000000000000000, 0.0000000000000000000, 0.0000000000000000000 ) ) ;
#52 = DIRECTION ( 'NONE',  ( 1.000000000000000000, 0.0000000000000000000, 0.0000000000000000000 ) ) ;
#53 = PRODUCT_RELATED_PRODUCT_CATEGORY ( 'part', '', ( #68 ) ) ;
#54 = ORIENTED_EDGE ( 'NONE', *, *, #125, .F. ) ;
#55 = DIRECTION ( 'NONE',  ( 1.000000000000000000, 0.0000000000000000000, 0.0000000000000000000 ) ) ;
#56 = FILL_AREA_STYLE ('',( #101 ) ) ;
#57 = DIRECTION ( 'NONE',  ( 0.0000000000000000000, 0.0000000000000000000, 1.000000000000000000 ) ) ;
#58 = CIRCLE ( 'NONE', #49, 10.69999999999999900 ) ;
#59 = AXIS2_PLACEMENT_3D ( 'NONE', #181, #85, #202 ) ;
#60 = DIRECTION ( 'NONE',  ( 0.0000000000000000000, 0.0000000000000000000, 1.000000000000000000 ) ) ;
#61 = ORIENTED_EDGE ( 'NONE', *, *, #195, .F. ) ;
#62 = CARTESIAN_POINT ( 'NONE',  ( 0.0000000000000000000, 0.0000000000000000000, -3.000000000000000000 ) ) ;
#63 = EDGE_CURVE ( 'NONE', #80, #119, #204, .T. ) ;
#64 = CIRCLE ( 'NONE', #59, 10.69999999999999900 ) ;
#65 = FACE_OUTER_BOUND ( 'NONE', #100, .T. ) ;
#66 = ORIENTED_EDGE ( 'NONE', *, *, #63, .T. ) ;
#67 = FACE_BOUND ( 'NONE', #20, .T. ) ;
#68 = PRODUCT ( '402DFL016-S1', '402DFL016-S1', '', ( #24 ) ) ;
#69 = AXIS2_PLACEMENT_3D ( 'NONE', #39, #200, #151 ) ;
#70 = CIRCLE ( 'NONE', #190, 10.69999999999999900 ) ;
#71 = EDGE_LOOP ( 'NONE', ( #47, #168, #31, #193 ) ) ;
#72 = PRESENTATION_STYLE_ASSIGNMENT (( #74 ) ) ;
#73 = CARTESIAN_POINT ( 'NONE',  ( 0.0000000000000000000, 0.0000000000000000000, -3.000000000000000000 ) ) ;
#74 = SURFACE_STYLE_USAGE ( .BOTH. , #169 ) ;
#75 = UNCERTAINTY_MEASURE_WITH_UNIT (LENGTH_MEASURE( 1.000000000000000100E-005 ), #103, 'distance_accuracy_value', 'NONE');
#76 = EDGE_CURVE ( 'NONE', #80, #161, #198, .T. ) ;
#77 = FACE_OUTER_BOUND ( 'NONE', #14, .T. ) ;
#78 = AXIS2_PLACEMENT_3D ( 'NONE', #73, #83, #166 ) ;
#79 = ADVANCED_FACE ( 'NONE', ( #67, #155 ), #90, .T. ) ;
#80 = VERTEX_POINT ( 'NONE', #104 ) ;
#81 = EDGE_CURVE ( 'NONE', #119, #80, #70, .T. ) ;
#82 = DIRECTION ( 'NONE',  ( 0.0000000000000000000, 0.0000000000000000000, 1.000000000000000000 ) ) ;
#83 = DIRECTION ( 'NONE',  ( 0.0000000000000000000, 0.0000000000000000000, 1.000000000000000000 ) ) ;
#84 = EDGE_LOOP ( 'NONE', ( #41, #3 ) ) ;
#85 = DIRECTION ( 'NONE',  ( 0.0000000000000000000, 0.0000000000000000000, 1.000000000000000000 ) ) ;
#86 = DIRECTION ( 'NONE',  ( 0.0000000000000000000, 0.0000000000000000000, 1.000000000000000000 ) ) ;
#87 =( NAMED_UNIT ( * ) PLANE_ANGLE_UNIT ( ) SI_UNIT ( $, .RADIAN. ) );
#88 = STYLED_ITEM ( 'NONE', ( #93 ), #203 ) ;
#89 = ORIENTED_EDGE ( 'NONE', *, *, #195, .T. ) ;
#90 = PLANE ( 'NONE',  #208 ) ;
#91 = EDGE_CURVE ( 'NONE', #28, #124, #27, .T. ) ;
#92 = DIRECTION ( 'NONE',  ( 0.0000000000000000000, 0.0000000000000000000, 1.000000000000000000 ) ) ;
#93 = PRESENTATION_STYLE_ASSIGNMENT (( #5 ) ) ;
#94 = ORIENTED_EDGE ( 'NONE', *, *, #125, .T. ) ;
#95 = ADVANCED_FACE ( 'NONE', ( #192, #65 ), #2, .F. ) ;
#96 = PRODUCT_DEFINITION_CONTEXT ( 'detailed design', #135, 'design' ) ;
#97 = CYLINDRICAL_SURFACE ( 'NONE', #69, 8.099999999999999600 ) ;
#98 = PRESENTATION_LAYER_ASSIGNMENT (  '', '', ( #88 ) ) ;
#99 = CARTESIAN_POINT ( 'NONE',  ( 10.69999999999999900, 0.0000000000000000000, -3.000000000000000000 ) ) ;
#100 = EDGE_LOOP ( 'NONE', ( #211, #150 ) ) ;
#101 = FILL_AREA_STYLE_COLOUR ( '', #112 ) ;
#102 = SURFACE_SIDE_STYLE ('',( #138 ) ) ;
#103 =( LENGTH_UNIT ( ) NAMED_UNIT ( * ) SI_UNIT ( .MILLI., .METRE. ) );
#104 = CARTESIAN_POINT ( 'NONE',  ( -10.69999999999999900, 1.310372075087667900E-015, -3.000000000000000000 ) ) ;
#105 = VECTOR ( 'NONE', #129, 1000.000000000000000 ) ;
#106 = EDGE_CURVE ( 'NONE', #28, #140, #187, .T. ) ;
#107 = VECTOR ( 'NONE', #196, 1000.000000000000000 ) ;
#108 = EDGE_LOOP ( 'NONE', ( #179, #188, #156, #44 ) ) ;
#109 = MECHANICAL_DESIGN_GEOMETRIC_PRESENTATION_REPRESENTATION (  '', ( #88 ), #123 ) ;
#110 = VECTOR ( 'NONE', #29, 1000.000000000000000 ) ;
#111 = ORIENTED_EDGE ( 'NONE', *, *, #114, .F. ) ;
#112 = COLOUR_RGB ( '',0.3843137254901960500, 0.3843137254901960500, 0.3843137254901960500 ) ;
#113 = CYLINDRICAL_SURFACE ( 'NONE', #171, 10.69999999999999900 ) ;
#114 = EDGE_CURVE ( 'NONE', #140, #11, #149, .T. ) ;
#115 = CARTESIAN_POINT ( 'NONE',  ( 8.099999999999999600, 0.0000000000000000000, -3.000000000000000000 ) ) ;
#116 = CARTESIAN_POINT ( 'NONE',  ( 0.0000000000000000000, 0.0000000000000000000, 0.0000000000000000000 ) ) ;
#117 = CARTESIAN_POINT ( 'NONE',  ( 0.0000000000000000000, 0.0000000000000000000, 0.0000000000000000000 ) ) ;
#118 =( LENGTH_UNIT ( ) NAMED_UNIT ( * ) SI_UNIT ( .MILLI., .METRE. ) );
#119 = VERTEX_POINT ( 'NONE', #99 ) ;
#120 =( NAMED_UNIT ( * ) SI_UNIT ( $, .STERADIAN. ) SOLID_ANGLE_UNIT ( ) );
#121 = CARTESIAN_POINT ( 'NONE',  ( 10.69999999999999900, 0.0000000000000000000, -3.000000000000000000 ) ) ;
#122 = DIRECTION ( 'NONE',  ( 1.000000000000000000, 0.0000000000000000000, 0.0000000000000000000 ) ) ;
#123 =( GEOMETRIC_REPRESENTATION_CONTEXT ( 3 ) GLOBAL_UNCERTAINTY_ASSIGNED_CONTEXT ( ( #212 ) ) GLOBAL_UNIT_ASSIGNED_CONTEXT ( ( #118, #22, #133 ) ) REPRESENTATION_CONTEXT ( 'NONE', 'WORKASPACE' ) );
#124 = VERTEX_POINT ( 'NONE', #165 ) ;
#125 = EDGE_CURVE ( 'NONE', #124, #11, #18, .T. ) ;
#126 = ORIENTED_EDGE ( 'NONE', *, *, #91, .T. ) ;
#127 = CARTESIAN_POINT ( 'NONE',  ( -8.099999999999999600, 9.919639073093559200E-016, -3.000000000000000000 ) ) ;
#128 = AXIS2_PLACEMENT_3D ( 'NONE', #182, #86, #205 ) ;
#129 = DIRECTION ( 'NONE',  ( 0.0000000000000000000, 0.0000000000000000000, 1.000000000000000000 ) ) ;
#130 = DIRECTION ( 'NONE',  ( 1.000000000000000000, 0.0000000000000000000, 0.0000000000000000000 ) ) ;
#131 = ORIENTED_EDGE ( 'NONE', *, *, #42, .T. ) ;
#132 = FILL_AREA_STYLE_COLOUR ( '', #16 ) ;
#133 =( NAMED_UNIT ( * ) SI_UNIT ( $, .STERADIAN. ) SOLID_ANGLE_UNIT ( ) );
#134 = APPLICATION_PROTOCOL_DEFINITION ( 'draft international standard', 'automotive_design', 1998, #153 ) ;
#135 = APPLICATION_CONTEXT ( 'automotive_design' ) ;
#136 = AXIS2_PLACEMENT_3D ( 'NONE', #139, #60, #154 ) ;
#137 = VERTEX_POINT ( 'NONE', #17 ) ;
#138 = SURFACE_STYLE_FILL_AREA ( #167 ) ;
#139 = CARTESIAN_POINT ( 'NONE',  ( 0.0000000000000000000, 0.0000000000000000000, 0.0000000000000000000 ) ) ;
#140 = VERTEX_POINT ( 'NONE', #178 ) ;
#141 =( GEOMETRIC_REPRESENTATION_CONTEXT ( 3 ) GLOBAL_UNCERTAINTY_ASSIGNED_CONTEXT ( ( #75 ) ) GLOBAL_UNIT_ASSIGNED_CONTEXT ( ( #103, #6, #120 ) ) REPRESENTATION_CONTEXT ( 'NONE', 'WORKASPACE' ) );
#142 = ORIENTED_EDGE ( 'NONE', *, *, #76, .F. ) ;
#143 = ADVANCED_FACE ( 'NONE', ( #145 ), #97, .F. ) ;
#144 = DIRECTION ( 'NONE',  ( 1.000000000000000000, 0.0000000000000000000, 0.0000000000000000000 ) ) ;
#145 = FACE_OUTER_BOUND ( 'NONE', #175, .T. ) ;
#146 = AXIS2_PLACEMENT_3D ( 'NONE', #62, #34, #144 ) ;
#147 = DIRECTION ( 'NONE',  ( 0.0000000000000000000, 0.0000000000000000000, 1.000000000000000000 ) ) ;
#148 = DIRECTION ( 'NONE',  ( 0.0000000000000000000, 0.0000000000000000000, 1.000000000000000000 ) ) ;
#149 = LINE ( 'NONE', #115, #105 ) ;
#150 = ORIENTED_EDGE ( 'NONE', *, *, #63, .F. ) ;
#151 = DIRECTION ( 'NONE',  ( 1.000000000000000000, 0.0000000000000000000, 0.0000000000000000000 ) ) ;
#152 = DIRECTION ( 'NONE',  ( 0.0000000000000000000, 0.0000000000000000000, 1.000000000000000000 ) ) ;
#153 = APPLICATION_CONTEXT ( 'automotive_design' ) ;
#154 = DIRECTION ( 'NONE',  ( 1.000000000000000000, 0.0000000000000000000, 0.0000000000000000000 ) ) ;
#155 = FACE_OUTER_BOUND ( 'NONE', #173, .T. ) ;
#156 = ORIENTED_EDGE ( 'NONE', *, *, #191, .F. ) ;
#157 = UNCERTAINTY_MEASURE_WITH_UNIT (LENGTH_MEASURE( 1.000000000000000100E-005 ), #184, 'distance_accuracy_value', 'NONE');
#158 = CARTESIAN_POINT ( 'NONE',  ( -8.099999999999999600, 9.919639073093559200E-016, -3.000000000000000000 ) ) ;
#159 = CLOSED_SHELL ( 'NONE', ( #143, #160, #15, #95, #79, #33 ) ) ;
#160 = ADVANCED_FACE ( 'NONE', ( #185 ), #12, .T. ) ;
#161 = VERTEX_POINT ( 'NONE', #201 ) ;
#162 = SURFACE_STYLE_FILL_AREA ( #56 ) ;
#163 = CARTESIAN_POINT ( 'NONE',  ( 0.0000000000000000000, 0.0000000000000000000, -3.000000000000000000 ) ) ;
#164 = STYLED_ITEM ( 'NONE', ( #72 ), #183 ) ;
#165 = CARTESIAN_POINT ( 'NONE',  ( -8.099999999999999600, 9.919639073093559200E-016, 0.0000000000000000000 ) ) ;
#166 = DIRECTION ( 'NONE',  ( 1.000000000000000000, 0.0000000000000000000, 0.0000000000000000000 ) ) ;
#167 = FILL_AREA_STYLE ('',( #132 ) ) ;
#168 = ORIENTED_EDGE ( 'NONE', *, *, #213, .F. ) ;
#169 = SURFACE_SIDE_STYLE ('',( #162 ) ) ;
#170 = CARTESIAN_POINT ( 'NONE',  ( 0.0000000000000000000, 0.0000000000000000000, 0.0000000000000000000 ) ) ;
#171 = AXIS2_PLACEMENT_3D ( 'NONE', #172, #45, #207 ) ;
#172 = CARTESIAN_POINT ( 'NONE',  ( 0.0000000000000000000, 0.0000000000000000000, -3.000000000000000000 ) ) ;
#173 = EDGE_LOOP ( 'NONE', ( #210, #89 ) ) ;
#174 = PRESENTATION_LAYER_ASSIGNMENT (  '', '', ( #164 ) ) ;
#175 = EDGE_LOOP ( 'NONE', ( #1, #126, #94, #111 ) ) ;
#176 = AXIS2_PLACEMENT_3D ( 'NONE', #23, #57, #48 ) ;
#177 = DIRECTION ( 'NONE',  ( 1.000000000000000000, 0.0000000000000000000, -0.0000000000000000000 ) ) ;
#178 = CARTESIAN_POINT ( 'NONE',  ( 8.099999999999999600, 0.0000000000000000000, -3.000000000000000000 ) ) ;
#179 = ORIENTED_EDGE ( 'NONE', *, *, #81, .T. ) ;
#180 = SHAPE_DEFINITION_REPRESENTATION ( #4, #183 ) ;
#181 = CARTESIAN_POINT ( 'NONE',  ( 0.0000000000000000000, 0.0000000000000000000, 0.0000000000000000000 ) ) ;
#182 = CARTESIAN_POINT ( 'NONE',  ( 0.0000000000000000000, 0.0000000000000000000, -3.000000000000000000 ) ) ;
#183 = ADVANCED_BREP_SHAPE_REPRESENTATION ( '402DFL016-S1', ( #203, #19 ), #141 ) ;
#184 =( LENGTH_UNIT ( ) NAMED_UNIT ( * ) SI_UNIT ( .MILLI., .METRE. ) );
#185 = FACE_OUTER_BOUND ( 'NONE', #108, .T. ) ;
#186 = MECHANICAL_DESIGN_GEOMETRIC_PRESENTATION_REPRESENTATION (  '', ( #164 ), #199 ) ;
#187 = CIRCLE ( 'NONE', #13, 8.099999999999999600 ) ;
#188 = ORIENTED_EDGE ( 'NONE', *, *, #76, .T. ) ;
#189 = FACE_OUTER_BOUND ( 'NONE', #71, .T. ) ;
#190 = AXIS2_PLACEMENT_3D ( 'NONE', #36, #147, #51 ) ;
#191 = EDGE_CURVE ( 'NONE', #137, #161, #58, .T. ) ;
#192 = FACE_BOUND ( 'NONE', #84, .T. ) ;
#193 = ORIENTED_EDGE ( 'NONE', *, *, #10, .T. ) ;
#194 = CIRCLE ( 'NONE', #136, 8.099999999999999600 ) ;
#195 = EDGE_CURVE ( 'NONE', #161, #137, #64, .T. ) ;
#196 = DIRECTION ( 'NONE',  ( 0.0000000000000000000, 0.0000000000000000000, 1.000000000000000000 ) ) ;
#197 = DIRECTION ( 'NONE',  ( 1.000000000000000000, 0.0000000000000000000, -0.0000000000000000000 ) ) ;
#198 = LINE ( 'NONE', #26, #110 ) ;
#199 =( GEOMETRIC_REPRESENTATION_CONTEXT ( 3 ) GLOBAL_UNCERTAINTY_ASSIGNED_CONTEXT ( ( #157 ) ) GLOBAL_UNIT_ASSIGNED_CONTEXT ( ( #184, #87, #206 ) ) REPRESENTATION_CONTEXT ( 'NONE', 'WORKASPACE' ) );
#200 = DIRECTION ( 'NONE',  ( 0.0000000000000000000, 0.0000000000000000000, 1.000000000000000000 ) ) ;
#201 = CARTESIAN_POINT ( 'NONE',  ( -10.69999999999999900, 1.310372075087667900E-015, 0.0000000000000000000 ) ) ;
#202 = DIRECTION ( 'NONE',  ( 1.000000000000000000, 0.0000000000000000000, 0.0000000000000000000 ) ) ;
#203 = MANIFOLD_SOLID_BREP ( 'Aufsatz-Linear austragen1', #159 ) ;
#204 = CIRCLE ( 'NONE', #146, 10.69999999999999900 ) ;
#205 = DIRECTION ( 'NONE',  ( 1.000000000000000000, 0.0000000000000000000, 0.0000000000000000000 ) ) ;
#206 =( NAMED_UNIT ( * ) SI_UNIT ( $, .STERADIAN. ) SOLID_ANGLE_UNIT ( ) );
#207 = DIRECTION ( 'NONE',  ( 1.000000000000000000, 0.0000000000000000000, 0.0000000000000000000 ) ) ;
#208 = AXIS2_PLACEMENT_3D ( 'NONE', #170, #7, #177 ) ;
#209 = CARTESIAN_POINT ( 'NONE',  ( 8.099999999999999600, 0.0000000000000000000, 0.0000000000000000000 ) ) ;
#210 = ORIENTED_EDGE ( 'NONE', *, *, #191, .T. ) ;
#211 = ORIENTED_EDGE ( 'NONE', *, *, #81, .F. ) ;
#212 = UNCERTAINTY_MEASURE_WITH_UNIT (LENGTH_MEASURE( 1.000000000000000100E-005 ), #118, 'distance_accuracy_value', 'NONE');
#213 = EDGE_CURVE ( 'NONE', #140, #28, #214, .T. ) ;
#214 = CIRCLE ( 'NONE', #128, 8.099999999999999600 ) ;
ENDSEC;
END-ISO-10303-21;
