ISO-10303-21;
/* Copyright TRINOS Vakuum-Systeme GmbH */
HEADER;
FILE_DESCRIPTION (( 'STEP AP214' ),
    '1' );
FILE_NAME ('402 DFL 200-S2.step',
    '2012-06-30T20:05:32',
    ( '' ),
    ( '' ),
    'SwSTEP 2.0',
    'SolidWorks 2010',
    '' );
FILE_SCHEMA (( 'AUTOMOTIVE_DESIGN' ));
ENDSEC;

DATA;
#1 = PRODUCT ( '402 DFL 200-S2', '402 DFL 200-S2', '', ( #122 ) ) ;
#2 = ORIENTED_EDGE ( 'NONE', *, *, #83, .F. ) ;
#3 = ORIENTED_EDGE ( 'NONE', *, *, #75, .T. ) ;
#4 = ORIENTED_EDGE ( 'NONE', *, *, #82, .T. ) ;
#5 = ORIENTED_EDGE ( 'NONE', *, *, #81, .F. ) ;
#6 = ORIENTED_EDGE ( 'NONE', *, *, #77, .F. ) ;
#7 = ORIENTED_EDGE ( 'NONE', *, *, #80, .F. ) ;
#8 = ORIENTED_EDGE ( 'NONE', *, *, #78, .T. ) ;
#9 = ORIENTED_EDGE ( 'NONE', *, *, #80, .T. ) ;
#10 = STYLED_ITEM ( 'NONE', ( #11 ), #94 ) ;
#11 = PRESENTATION_STYLE_ASSIGNMENT (( #175 ) ) ;
#12 = SURFACE_STYLE_FILL_AREA ( #177 ) ;
#13 = ORIENTED_EDGE ( 'NONE', *, *, #82, .F. ) ;
#14 = CIRCLE ( 'NONE', #69, 101.6500000000000100 ) ;
#15 = LINE ( 'NONE', #188, #32 ) ;
#16 = CIRCLE ( 'NONE', #70, 111.0500000000000100 ) ;
#17 = FACE_OUTER_BOUND ( 'NONE', #44, .T. ) ;
#18 = CIRCLE ( 'NONE', #71, 111.0500000000000100 ) ;
#19 = COLOUR_RGB ( '',0.2509803921568627400, 0.2509803921568627400, 0.2509803921568627400 ) ;
#20 = CIRCLE ( 'NONE', #66, 101.6500000000000100 ) ;
#21 = ORIENTED_EDGE ( 'NONE', *, *, #88, .T. ) ;
#22 = VECTOR ( 'NONE', #197, 1000.000000000000000 ) ;
#23 = ORIENTED_EDGE ( 'NONE', *, *, #86, .T. ) ;
#24 = ORIENTED_EDGE ( 'NONE', *, *, #74, .F. ) ;
#25 = ORIENTED_EDGE ( 'NONE', *, *, #84, .T. ) ;
#26 = LINE ( 'NONE', #198, #22 ) ;
#27 = CIRCLE ( 'NONE', #72, 101.6500000000000100 ) ;
#28 = ORIENTED_EDGE ( 'NONE', *, *, #76, .F. ) ;
#29 = ORIENTED_EDGE ( 'NONE', *, *, #88, .F. ) ;
#30 = CIRCLE ( 'NONE', #73, 111.0500000000000100 ) ;
#31 = VECTOR ( 'NONE', #200, 1000.000000000000000 ) ;
#32 = VECTOR ( 'NONE', #178, 1000.000000000000000 ) ;
#33 = LINE ( 'NONE', #201, #31 ) ;
#34 = CIRCLE ( 'NONE', #89, 111.0500000000000100 ) ;
#35 = LINE ( 'NONE', #213, #38 ) ;
#36 = CLOSED_SHELL ( 'NONE', ( #116, #117, #118, #119, #115, #114 ) ) ;
#37 = CIRCLE ( 'NONE', #87, 101.6500000000000100 ) ;
#38 = VECTOR ( 'NONE', #137, 1000.000000000000000 ) ;
#39 = EDGE_LOOP ( 'NONE', ( #47, #48 ) ) ;
#40 = EDGE_LOOP ( 'NONE', ( #49, #50 ) ) ;
#41 = EDGE_LOOP ( 'NONE', ( #7, #6, #54, #25 ) ) ;
#42 = EDGE_LOOP ( 'NONE', ( #51, #53 ) ) ;
#43 = EDGE_LOOP ( 'NONE', ( #8, #55, #24, #29 ) ) ;
#44 = EDGE_LOOP ( 'NONE', ( #28, #23, #21, #13 ) ) ;
#45 = EDGE_LOOP ( 'NONE', ( #2, #9, #3, #5 ) ) ;
#46 = EDGE_LOOP ( 'NONE', ( #52, #4 ) ) ;
#47 = ORIENTED_EDGE ( 'NONE', *, *, #77, .T. ) ;
#48 = ORIENTED_EDGE ( 'NONE', *, *, #83, .T. ) ;
#49 = ORIENTED_EDGE ( 'NONE', *, *, #78, .F. ) ;
#50 = ORIENTED_EDGE ( 'NONE', *, *, #86, .F. ) ;
#51 = ORIENTED_EDGE ( 'NONE', *, *, #84, .F. ) ;
#52 = ORIENTED_EDGE ( 'NONE', *, *, #74, .T. ) ;
#53 = ORIENTED_EDGE ( 'NONE', *, *, #75, .F. ) ;
#54 = ORIENTED_EDGE ( 'NONE', *, *, #81, .T. ) ;
#55 = ORIENTED_EDGE ( 'NONE', *, *, #76, .T. ) ;
#56 = AXIS2_PLACEMENT_3D ( 'NONE', #125, #124, #140 ) ;
#57 = PRESENTATION_LAYER_ASSIGNMENT (  '', '', ( #95 ) ) ;
#58 = MECHANICAL_DESIGN_GEOMETRIC_PRESENTATION_REPRESENTATION (  '', ( #95 ), #102 ) ;
#59 = AXIS2_PLACEMENT_3D ( 'NONE', #156, #147, #146 ) ;
#60 = AXIS2_PLACEMENT_3D ( 'NONE', #155, #151, #150 ) ;
#61 = PRODUCT_DEFINITION_FORMATION_WITH_SPECIFIED_SOURCE ( 'ANY', '', #1, .NOT_KNOWN. ) ;
#62 = AXIS2_PLACEMENT_3D ( 'NONE', #157, #158, #160 ) ;
#63 = AXIS2_PLACEMENT_3D ( 'NONE', #161, #163, #164 ) ;
#64 = AXIS2_PLACEMENT_3D ( 'NONE', #165, #166, #167 ) ;
#65 = AXIS2_PLACEMENT_3D ( 'NONE', #168, #180, #169 ) ;
#66 = AXIS2_PLACEMENT_3D ( 'NONE', #196, #193, #192 ) ;
#67 = MECHANICAL_DESIGN_GEOMETRIC_PRESENTATION_REPRESENTATION (  '', ( #10 ), #97 ) ;
#68 = PRESENTATION_LAYER_ASSIGNMENT (  '', '', ( #10 ) ) ;
#69 = AXIS2_PLACEMENT_3D ( 'NONE', #191, #182, #181 ) ;
#70 = AXIS2_PLACEMENT_3D ( 'NONE', #195, #187, #185 ) ;
#71 = AXIS2_PLACEMENT_3D ( 'NONE', #199, #190, #189 ) ;
#72 = AXIS2_PLACEMENT_3D ( 'NONE', #206, #204, #203 ) ;
#73 = AXIS2_PLACEMENT_3D ( 'NONE', #211, #208, #207 ) ;
#74 = EDGE_CURVE ( 'NONE', #183, #171, #37, .T. ) ;
#75 = EDGE_CURVE ( 'NONE', #212, #210, #34, .T. ) ;
#76 = EDGE_CURVE ( 'NONE', #186, #171, #35, .T. ) ;
#77 = EDGE_CURVE ( 'NONE', #205, #209, #30, .T. ) ;
#78 = EDGE_CURVE ( 'NONE', #214, #186, #27, .T. ) ;
#79 = PRODUCT_RELATED_PRODUCT_CATEGORY ( 'part', '', ( #1 ) ) ;
#80 = EDGE_CURVE ( 'NONE', #209, #212, #33, .T. ) ;
#81 = EDGE_CURVE ( 'NONE', #205, #210, #26, .T. ) ;
#82 = EDGE_CURVE ( 'NONE', #171, #183, #20, .T. ) ;
#83 = EDGE_CURVE ( 'NONE', #209, #205, #18, .T. ) ;
#84 = EDGE_CURVE ( 'NONE', #210, #212, #16, .T. ) ;
#85 = PRODUCT_DEFINITION ( 'UNKNOWN', '', #61, #121 ) ;
#86 = EDGE_CURVE ( 'NONE', #186, #214, #14, .T. ) ;
#87 = AXIS2_PLACEMENT_3D ( 'NONE', #194, #202, #162 ) ;
#88 = EDGE_CURVE ( 'NONE', #214, #183, #15, .T. ) ;
#89 = AXIS2_PLACEMENT_3D ( 'NONE', #159, #153, #152 ) ;
#90 = UNCERTAINTY_MEASURE_WITH_UNIT (LENGTH_MEASURE( 1.000000000000000100E-005 ), #128, 'distance_accuracy_value', 'NONE');
#91 = ADVANCED_BREP_SHAPE_REPRESENTATION ( '402 DFL 200-S2', ( #94, #56 ), #104 ) ;
#92 = UNCERTAINTY_MEASURE_WITH_UNIT (LENGTH_MEASURE( 1.000000000000000100E-005 ), #145, 'distance_accuracy_value', 'NONE');
#93 = UNCERTAINTY_MEASURE_WITH_UNIT (LENGTH_MEASURE( 1.000000000000000100E-005 ), #174, 'distance_accuracy_value', 'NONE');
#94 = MANIFOLD_SOLID_BREP ( 'Linear austragen1', #36 ) ;
#95 = STYLED_ITEM ( 'NONE', ( #109 ), #91 ) ;
#96 = FACE_BOUND ( 'NONE', #40, .T. ) ;
#97 =( GEOMETRIC_REPRESENTATION_CONTEXT ( 3 ) GLOBAL_UNCERTAINTY_ASSIGNED_CONTEXT ( ( #93 ) ) GLOBAL_UNIT_ASSIGNED_CONTEXT ( ( #174, #173, #172 ) ) REPRESENTATION_CONTEXT ( 'NONE', 'WORKASPACE' ) );
#98 = SURFACE_STYLE_FILL_AREA ( #131 ) ;
#99 = FACE_OUTER_BOUND ( 'NONE', #43, .T. ) ;
#100 = CYLINDRICAL_SURFACE ( 'NONE', #63, 101.6500000000000100 ) ;
#101 = FACE_OUTER_BOUND ( 'NONE', #45, .T. ) ;
#102 =( GEOMETRIC_REPRESENTATION_CONTEXT ( 3 ) GLOBAL_UNCERTAINTY_ASSIGNED_CONTEXT ( ( #90 ) ) GLOBAL_UNIT_ASSIGNED_CONTEXT ( ( #128, #127, #126 ) ) REPRESENTATION_CONTEXT ( 'NONE', 'WORKASPACE' ) );
#103 = SHAPE_DEFINITION_REPRESENTATION ( #120, #91 ) ;
#104 =( GEOMETRIC_REPRESENTATION_CONTEXT ( 3 ) GLOBAL_UNCERTAINTY_ASSIGNED_CONTEXT ( ( #92 ) ) GLOBAL_UNIT_ASSIGNED_CONTEXT ( ( #145, #136, #134 ) ) REPRESENTATION_CONTEXT ( 'NONE', 'WORKASPACE' ) );
#105 = FACE_BOUND ( 'NONE', #46, .T. ) ;
#106 = FACE_OUTER_BOUND ( 'NONE', #41, .T. ) ;
#107 = FACE_OUTER_BOUND ( 'NONE', #42, .T. ) ;
#108 = CYLINDRICAL_SURFACE ( 'NONE', #62, 111.0500000000000100 ) ;
#109 = PRESENTATION_STYLE_ASSIGNMENT (( #129 ) ) ;
#110 = COLOUR_RGB ( '',0.3843137254901960500, 0.3843137254901960500, 0.3843137254901960500 ) ;
#111 = CYLINDRICAL_SURFACE ( 'NONE', #65, 101.6500000000000100 ) ;
#112 = CYLINDRICAL_SURFACE ( 'NONE', #64, 111.0500000000000100 ) ;
#113 = FACE_OUTER_BOUND ( 'NONE', #39, .T. ) ;
#114 = ADVANCED_FACE ( 'NONE', ( #17 ), #111, .F. ) ;
#115 = ADVANCED_FACE ( 'NONE', ( #106 ), #112, .T. ) ;
#116 = ADVANCED_FACE ( 'NONE', ( #99 ), #100, .F. ) ;
#117 = ADVANCED_FACE ( 'NONE', ( #101 ), #108, .T. ) ;
#118 = ADVANCED_FACE ( 'NONE', ( #113, #96 ), #154, .T. ) ;
#119 = ADVANCED_FACE ( 'NONE', ( #107, #105 ), #148, .F. ) ;
#120 = PRODUCT_DEFINITION_SHAPE ( 'NONE', 'NONE',  #85 ) ;
#121 = PRODUCT_DEFINITION_CONTEXT ( 'detailed design', #135, 'design' ) ;
#122 = PRODUCT_CONTEXT ( 'NONE', #139, 'mechanical' ) ;
#123 = APPLICATION_PROTOCOL_DEFINITION ( 'draft international standard', 'automotive_design', 1998, #139 ) ;
#124 = DIRECTION ( 'NONE',  ( 0.0000000000000000000, 0.0000000000000000000, 1.000000000000000000 ) ) ;
#125 = CARTESIAN_POINT ( 'NONE',  ( 0.0000000000000000000, 0.0000000000000000000, 0.0000000000000000000 ) ) ;
#126 =( NAMED_UNIT ( * ) SI_UNIT ( $, .STERADIAN. ) SOLID_ANGLE_UNIT ( ) );
#127 =( NAMED_UNIT ( * ) PLANE_ANGLE_UNIT ( ) SI_UNIT ( $, .RADIAN. ) );
#128 =( LENGTH_UNIT ( ) NAMED_UNIT ( * ) SI_UNIT ( .MILLI., .METRE. ) );
#129 = SURFACE_STYLE_USAGE ( .BOTH. , #130 ) ;
#130 = SURFACE_SIDE_STYLE ('',( #98 ) ) ;
#131 = FILL_AREA_STYLE ('',( #133 ) ) ;
#132 = APPLICATION_PROTOCOL_DEFINITION ( 'draft international standard', 'automotive_design', 1998, #135 ) ;
#133 = FILL_AREA_STYLE_COLOUR ( '', #110 ) ;
#134 =( NAMED_UNIT ( * ) SI_UNIT ( $, .STERADIAN. ) SOLID_ANGLE_UNIT ( ) );
#135 = APPLICATION_CONTEXT ( 'automotive_design' ) ;
#136 =( NAMED_UNIT ( * ) PLANE_ANGLE_UNIT ( ) SI_UNIT ( $, .RADIAN. ) );
#137 = DIRECTION ( 'NONE',  ( -0.0000000000000000000, -0.0000000000000000000, -1.000000000000000000 ) ) ;
#138 = CARTESIAN_POINT ( 'NONE',  ( -101.6500000000000100, 0.0000000000000000000, 3.000000000000000000 ) ) ;
#139 = APPLICATION_CONTEXT ( 'automotive_design' ) ;
#140 = DIRECTION ( 'NONE',  ( 1.000000000000000000, 0.0000000000000000000, 0.0000000000000000000 ) ) ;
#141 = CARTESIAN_POINT ( 'NONE',  ( 111.0500000000000100, 1.359970270453135900E-014, 0.0000000000000000000 ) ) ;
#142 = CARTESIAN_POINT ( 'NONE',  ( -111.0500000000000100, 0.0000000000000000000, 0.0000000000000000000 ) ) ;
#143 = CARTESIAN_POINT ( 'NONE',  ( 111.0500000000000100, 1.359970270453135900E-014, 3.000000000000000000 ) ) ;
#144 = CARTESIAN_POINT ( 'NONE',  ( 101.6500000000000100, 1.244853471333284600E-014, 3.000000000000000000 ) ) ;
#145 =( LENGTH_UNIT ( ) NAMED_UNIT ( * ) SI_UNIT ( .MILLI., .METRE. ) );
#146 = DIRECTION ( 'NONE',  ( 1.000000000000000000, 0.0000000000000000000, -0.0000000000000000000 ) ) ;
#147 = DIRECTION ( 'NONE',  ( 0.0000000000000000000, 0.0000000000000000000, 1.000000000000000000 ) ) ;
#148 = PLANE ( 'NONE',  #59 ) ;
#149 = CARTESIAN_POINT ( 'NONE',  ( 101.6500000000000100, 1.244853471333284600E-014, 0.0000000000000000000 ) ) ;
#150 = DIRECTION ( 'NONE',  ( 1.000000000000000000, 0.0000000000000000000, -0.0000000000000000000 ) ) ;
#151 = DIRECTION ( 'NONE',  ( 0.0000000000000000000, 0.0000000000000000000, 1.000000000000000000 ) ) ;
#152 = DIRECTION ( 'NONE',  ( 1.000000000000000000, 0.0000000000000000000, 0.0000000000000000000 ) ) ;
#153 = DIRECTION ( 'NONE',  ( 0.0000000000000000000, 0.0000000000000000000, 1.000000000000000000 ) ) ;
#154 = PLANE ( 'NONE',  #60 ) ;
#155 = CARTESIAN_POINT ( 'NONE',  ( 0.0000000000000000000, 0.0000000000000000000, 3.000000000000000000 ) ) ;
#156 = CARTESIAN_POINT ( 'NONE',  ( 0.0000000000000000000, 0.0000000000000000000, 0.0000000000000000000 ) ) ;
#157 = CARTESIAN_POINT ( 'NONE',  ( 0.0000000000000000000, 0.0000000000000000000, 3.000000000000000000 ) ) ;
#158 = DIRECTION ( 'NONE',  ( -0.0000000000000000000, -0.0000000000000000000, -1.000000000000000000 ) ) ;
#159 = CARTESIAN_POINT ( 'NONE',  ( 0.0000000000000000000, 0.0000000000000000000, 0.0000000000000000000 ) ) ;
#160 = DIRECTION ( 'NONE',  ( -1.000000000000000000, 0.0000000000000000000, 0.0000000000000000000 ) ) ;
#161 = CARTESIAN_POINT ( 'NONE',  ( 0.0000000000000000000, 0.0000000000000000000, 3.000000000000000000 ) ) ;
#162 = DIRECTION ( 'NONE',  ( 1.000000000000000000, 0.0000000000000000000, 0.0000000000000000000 ) ) ;
#163 = DIRECTION ( 'NONE',  ( -0.0000000000000000000, -0.0000000000000000000, -1.000000000000000000 ) ) ;
#164 = DIRECTION ( 'NONE',  ( -1.000000000000000000, 0.0000000000000000000, 0.0000000000000000000 ) ) ;
#165 = CARTESIAN_POINT ( 'NONE',  ( 0.0000000000000000000, 0.0000000000000000000, 3.000000000000000000 ) ) ;
#166 = DIRECTION ( 'NONE',  ( -0.0000000000000000000, -0.0000000000000000000, -1.000000000000000000 ) ) ;
#167 = DIRECTION ( 'NONE',  ( -1.000000000000000000, 0.0000000000000000000, 0.0000000000000000000 ) ) ;
#168 = CARTESIAN_POINT ( 'NONE',  ( 0.0000000000000000000, 0.0000000000000000000, 3.000000000000000000 ) ) ;
#169 = DIRECTION ( 'NONE',  ( -1.000000000000000000, 0.0000000000000000000, 0.0000000000000000000 ) ) ;
#170 = CARTESIAN_POINT ( 'NONE',  ( -101.6500000000000100, 0.0000000000000000000, 0.0000000000000000000 ) ) ;
#171 = VERTEX_POINT ( 'NONE', #149 ) ;
#172 =( NAMED_UNIT ( * ) SI_UNIT ( $, .STERADIAN. ) SOLID_ANGLE_UNIT ( ) );
#173 =( NAMED_UNIT ( * ) PLANE_ANGLE_UNIT ( ) SI_UNIT ( $, .RADIAN. ) );
#174 =( LENGTH_UNIT ( ) NAMED_UNIT ( * ) SI_UNIT ( .MILLI., .METRE. ) );
#175 = SURFACE_STYLE_USAGE ( .BOTH. , #176 ) ;
#176 = SURFACE_SIDE_STYLE ('',( #12 ) ) ;
#177 = FILL_AREA_STYLE ('',( #184 ) ) ;
#178 = DIRECTION ( 'NONE',  ( -0.0000000000000000000, -0.0000000000000000000, -1.000000000000000000 ) ) ;
#179 = CARTESIAN_POINT ( 'NONE',  ( -111.0500000000000100, 0.0000000000000000000, 3.000000000000000000 ) ) ;
#180 = DIRECTION ( 'NONE',  ( -0.0000000000000000000, -0.0000000000000000000, -1.000000000000000000 ) ) ;
#181 = DIRECTION ( 'NONE',  ( 1.000000000000000000, 0.0000000000000000000, 0.0000000000000000000 ) ) ;
#182 = DIRECTION ( 'NONE',  ( 0.0000000000000000000, 0.0000000000000000000, 1.000000000000000000 ) ) ;
#183 = VERTEX_POINT ( 'NONE', #170 ) ;
#184 = FILL_AREA_STYLE_COLOUR ( '', #19 ) ;
#185 = DIRECTION ( 'NONE',  ( 1.000000000000000000, 0.0000000000000000000, 0.0000000000000000000 ) ) ;
#186 = VERTEX_POINT ( 'NONE', #144 ) ;
#187 = DIRECTION ( 'NONE',  ( 0.0000000000000000000, 0.0000000000000000000, 1.000000000000000000 ) ) ;
#188 = CARTESIAN_POINT ( 'NONE',  ( -101.6500000000000100, 0.0000000000000000000, 3.000000000000000000 ) ) ;
#189 = DIRECTION ( 'NONE',  ( 1.000000000000000000, 0.0000000000000000000, 0.0000000000000000000 ) ) ;
#190 = DIRECTION ( 'NONE',  ( 0.0000000000000000000, 0.0000000000000000000, 1.000000000000000000 ) ) ;
#191 = CARTESIAN_POINT ( 'NONE',  ( 0.0000000000000000000, 0.0000000000000000000, 3.000000000000000000 ) ) ;
#192 = DIRECTION ( 'NONE',  ( 1.000000000000000000, 0.0000000000000000000, 0.0000000000000000000 ) ) ;
#193 = DIRECTION ( 'NONE',  ( 0.0000000000000000000, 0.0000000000000000000, 1.000000000000000000 ) ) ;
#194 = CARTESIAN_POINT ( 'NONE',  ( 0.0000000000000000000, 0.0000000000000000000, 0.0000000000000000000 ) ) ;
#195 = CARTESIAN_POINT ( 'NONE',  ( 0.0000000000000000000, 0.0000000000000000000, 0.0000000000000000000 ) ) ;
#196 = CARTESIAN_POINT ( 'NONE',  ( 0.0000000000000000000, 0.0000000000000000000, 0.0000000000000000000 ) ) ;
#197 = DIRECTION ( 'NONE',  ( -0.0000000000000000000, -0.0000000000000000000, -1.000000000000000000 ) ) ;
#198 = CARTESIAN_POINT ( 'NONE',  ( -111.0500000000000100, 0.0000000000000000000, 3.000000000000000000 ) ) ;
#199 = CARTESIAN_POINT ( 'NONE',  ( 0.0000000000000000000, 0.0000000000000000000, 3.000000000000000000 ) ) ;
#200 = DIRECTION ( 'NONE',  ( -0.0000000000000000000, -0.0000000000000000000, -1.000000000000000000 ) ) ;
#201 = CARTESIAN_POINT ( 'NONE',  ( 111.0500000000000100, 1.359970270453135900E-014, 3.000000000000000000 ) ) ;
#202 = DIRECTION ( 'NONE',  ( 0.0000000000000000000, 0.0000000000000000000, 1.000000000000000000 ) ) ;
#203 = DIRECTION ( 'NONE',  ( 1.000000000000000000, 0.0000000000000000000, 0.0000000000000000000 ) ) ;
#204 = DIRECTION ( 'NONE',  ( 0.0000000000000000000, 0.0000000000000000000, 1.000000000000000000 ) ) ;
#205 = VERTEX_POINT ( 'NONE', #179 ) ;
#206 = CARTESIAN_POINT ( 'NONE',  ( 0.0000000000000000000, 0.0000000000000000000, 3.000000000000000000 ) ) ;
#207 = DIRECTION ( 'NONE',  ( 1.000000000000000000, 0.0000000000000000000, 0.0000000000000000000 ) ) ;
#208 = DIRECTION ( 'NONE',  ( 0.0000000000000000000, 0.0000000000000000000, 1.000000000000000000 ) ) ;
#209 = VERTEX_POINT ( 'NONE', #143 ) ;
#210 = VERTEX_POINT ( 'NONE', #142 ) ;
#211 = CARTESIAN_POINT ( 'NONE',  ( 0.0000000000000000000, 0.0000000000000000000, 3.000000000000000000 ) ) ;
#212 = VERTEX_POINT ( 'NONE', #141 ) ;
#213 = CARTESIAN_POINT ( 'NONE',  ( 101.6500000000000100, 1.244853471333284600E-014, 3.000000000000000000 ) ) ;
#214 = VERTEX_POINT ( 'NONE', #138 ) ;
ENDSEC;
END-ISO-10303-21;
