ISO-10303-21;
HEADER;
FILE_DESCRIPTION (( 'STEP AP214' ),
    '1' );
FILE_NAME ('402DFL160-Z.step',
    '2017-07-07T09:58:11',
    ( 'install' ),
    ( '' ),
    'SwSTEP 2.0',
    'SolidWorks 2015',
    '' );
FILE_SCHEMA (( 'AUTOMOTIVE_DESIGN' ));
ENDSEC;

DATA;
#1 = VERTEX_POINT ( 'NONE', #155 ) ;
#2 = FACE_OUTER_BOUND ( 'NONE', #4, .T. ) ;
#3 = AXIS2_PLACEMENT_3D ( 'NONE', #71, #281, #280 ) ;
#4 = EDGE_LOOP ( 'NONE', ( #33, #228, #262, #254 ) ) ;
#5 = CARTESIAN_POINT ( 'NONE',  ( -84.55808929720140600, 0.0000000000000000000, -3.000000000000000000 ) ) ;
#6 = DIRECTION ( 'NONE',  ( 1.000000000000000000, 0.0000000000000000000, 0.0000000000000000000 ) ) ;
#7 = EDGE_CURVE ( 'NONE', #170, #214, #144, .T. ) ;
#8 = CONICAL_SURFACE ( 'NONE', #151, 84.55808929720140600, 0.3490658503988634000 ) ;
#9 = CARTESIAN_POINT ( 'NONE',  ( 0.0000000000000000000, 0.0000000000000000000, -3.000000000000000000 ) ) ;
#10 = DIRECTION ( 'NONE',  ( -0.0000000000000000000, -0.0000000000000000000, 1.000000000000000000 ) ) ;
#11 = CONICAL_SURFACE ( 'NONE', #165, 85.65000000000000600, 1.134464013796320000 ) ;
#12 = CIRCLE ( 'NONE', #271, 84.55808929720140600 ) ;
#13 = DIRECTION ( 'NONE',  ( -0.0000000000000000000, -0.0000000000000000000, 1.000000000000000000 ) ) ;
#14 = CARTESIAN_POINT ( 'NONE',  ( 79.25000000000000000, 0.0000000000000000000, -3.000000000000000000 ) ) ;
#15 = AXIS2_PLACEMENT_3D ( 'NONE', #296, #252, #187 ) ;
#16 = APPLICATION_CONTEXT ( 'automotive_design' ) ;
#17 = CARTESIAN_POINT ( 'NONE',  ( -79.25000000000000000, 9.705325883242774700E-015, 0.0000000000000000000 ) ) ;
#18 = FACE_OUTER_BOUND ( 'NONE', #201, .T. ) ;
#19 = CIRCLE ( 'NONE', #15, 79.25000000000000000 ) ;
#20 = ADVANCED_FACE ( 'NONE', ( #255 ), #163, .F. ) ;
#21 = SURFACE_STYLE_USAGE ( .BOTH. , #98 ) ;
#22 = DIRECTION ( 'NONE',  ( -0.0000000000000000000, -0.0000000000000000000, 1.000000000000000000 ) ) ;
#23 = ADVANCED_FACE ( 'NONE', ( #209 ), #38, .F. ) ;
#24 = ORIENTED_EDGE ( 'NONE', *, *, #85, .F. ) ;
#25 = PRESENTATION_STYLE_ASSIGNMENT (( #21 ) ) ;
#26 = DIRECTION ( 'NONE',  ( 1.000000000000000000, 0.0000000000000000000, 0.0000000000000000000 ) ) ;
#27 = AXIS2_PLACEMENT_3D ( 'NONE', #147, #150, #304 ) ;
#28 = DIRECTION ( 'NONE',  ( 1.000000000000000000, 0.0000000000000000000, 0.0000000000000000000 ) ) ;
#29 = AXIS2_PLACEMENT_3D ( 'NONE', #122, #250, #47 ) ;
#30 = LINE ( 'NONE', #82, #56 ) ;
#31 = EDGE_CURVE ( 'NONE', #298, #162, #12, .T. ) ;
#32 = EDGE_LOOP ( 'NONE', ( #297, #247, #171, #117 ) ) ;
#33 = ORIENTED_EDGE ( 'NONE', *, *, #138, .F. ) ;
#34 = AXIS2_PLACEMENT_3D ( 'NONE', #79, #157, #268 ) ;
#35 = LINE ( 'NONE', #17, #67 ) ;
#36 = SURFACE_STYLE_FILL_AREA ( #216 ) ;
#37 = EDGE_LOOP ( 'NONE', ( #238, #180, #129, #306 ) ) ;
#38 = CYLINDRICAL_SURFACE ( 'NONE', #295, 79.25000000000000000 ) ;
#39 = FILL_AREA_STYLE_COLOUR ( '', #182 ) ;
#40 = DIRECTION ( 'NONE',  ( 1.000000000000000000, 0.0000000000000000000, 0.0000000000000000000 ) ) ;
#41 = VERTEX_POINT ( 'NONE', #305 ) ;
#42 = DIRECTION ( 'NONE',  ( 1.000000000000000000, 0.0000000000000000000, 0.0000000000000000000 ) ) ;
#43 = DIRECTION ( 'NONE',  ( 1.000000000000000000, 0.0000000000000000000, 0.0000000000000000000 ) ) ;
#44 = FILL_AREA_STYLE_COLOUR ( '', #183 ) ;
#45 = FACE_OUTER_BOUND ( 'NONE', #32, .T. ) ;
#46 = PRODUCT_DEFINITION ( 'UNKNOWN', '', #58, #167 ) ;
#47 = DIRECTION ( 'NONE',  ( 1.000000000000000000, 0.0000000000000000000, 0.0000000000000000000 ) ) ;
#48 = STYLED_ITEM ( 'NONE', ( #25 ), #90 ) ;
#49 = VECTOR ( 'NONE', #77, 1000.000000000000000 ) ;
#50 = EDGE_CURVE ( 'NONE', #94, #202, #148, .T. ) ;
#51 = CIRCLE ( 'NONE', #34, 83.50499999999999500 ) ;
#52 = LINE ( 'NONE', #256, #240 ) ;
#53 = AXIS2_PLACEMENT_3D ( 'NONE', #142, #300, #164 ) ;
#54 = ORIENTED_EDGE ( 'NONE', *, *, #181, .T. ) ;
#55 = EDGE_LOOP ( 'NONE', ( #185, #192, #63, #253 ) ) ;
#56 = VECTOR ( 'NONE', #230, 1000.000000000000000 ) ;
#57 = LINE ( 'NONE', #291, #303 ) ;
#58 = PRODUCT_DEFINITION_FORMATION_WITH_SPECIFIED_SOURCE ( 'ANY', '', #153, .NOT_KNOWN. ) ;
#59 = VECTOR ( 'NONE', #237, 1000.000000000000100 ) ;
#60 = CARTESIAN_POINT ( 'NONE',  ( 0.0000000000000000000, 0.0000000000000000000, 0.0000000000000000000 ) ) ;
#61 = SHAPE_DEFINITION_REPRESENTATION ( #222, #243 ) ;
#62 = AXIS2_PLACEMENT_3D ( 'NONE', #178, #72, #263 ) ;
#63 = ORIENTED_EDGE ( 'NONE', *, *, #7, .T. ) ;
#64 = CARTESIAN_POINT ( 'NONE',  ( 85.65000000000000600, 0.0000000000000000000, 0.0000000000000000000 ) ) ;
#65 = EDGE_CURVE ( 'NONE', #301, #214, #229, .T. ) ;
#66 = CARTESIAN_POINT ( 'NONE',  ( -83.50499999999999500, 1.022641309627997200E-014, -0.9999999999999965600 ) ) ;
#67 = VECTOR ( 'NONE', #111, 1000.000000000000000 ) ;
#68 = CARTESIAN_POINT ( 'NONE',  ( -84.55808929720140600, 1.042223958734022800E-014, -3.000000000000000000 ) ) ;
#69 = CARTESIAN_POINT ( 'NONE',  ( 0.0000000000000000000, 0.0000000000000000000, -3.000000000000000000 ) ) ;
#70 = SURFACE_SIDE_STYLE ('',( #36 ) ) ;
#71 = CARTESIAN_POINT ( 'NONE',  ( 0.0000000000000000000, 0.0000000000000000000, -0.9999999999999970000 ) ) ;
#72 = DIRECTION ( 'NONE',  ( 0.0000000000000000000, 0.0000000000000000000, -1.000000000000000000 ) ) ;
#73 = FACE_OUTER_BOUND ( 'NONE', #135, .T. ) ;
#74 = FILL_AREA_STYLE ('',( #39 ) ) ;
#75 = ADVANCED_FACE ( 'NONE', ( #114 ), #269, .T. ) ;
#76 = FACE_OUTER_BOUND ( 'NONE', #100, .T. ) ;
#77 = DIRECTION ( 'NONE',  ( -0.0000000000000000000, -0.0000000000000000000, 1.000000000000000000 ) ) ;
#78 = PRODUCT_RELATED_PRODUCT_CATEGORY ( 'part', '', ( #153 ) ) ;
#79 = CARTESIAN_POINT ( 'NONE',  ( 0.0000000000000000000, 0.0000000000000000000, -0.9999999999999965600 ) ) ;
#80 = VERTEX_POINT ( 'NONE', #277 ) ;
#81 = PRESENTATION_LAYER_ASSIGNMENT (  '', '', ( #48 ) ) ;
#82 = CARTESIAN_POINT ( 'NONE',  ( 83.50499999999999500, 0.0000000000000000000, 0.0000000000000000000 ) ) ;
#83 = DIRECTION ( 'NONE',  ( -0.0000000000000000000, -0.0000000000000000000, 1.000000000000000000 ) ) ;
#84 = CIRCLE ( 'NONE', #53, 83.50499999999999500 ) ;
#85 = EDGE_CURVE ( 'NONE', #80, #207, #217, .T. ) ;
#86 = AXIS2_PLACEMENT_3D ( 'NONE', #116, #276, #143 ) ;
#87 = DIRECTION ( 'NONE',  ( 1.000000000000000000, 0.0000000000000000000, 0.0000000000000000000 ) ) ;
#88 = ADVANCED_FACE ( 'NONE', ( #210, #76 ), #221, .F. ) ;
#89 = ORIENTED_EDGE ( 'NONE', *, *, #215, .F. ) ;
#90 = MANIFOLD_SOLID_BREP ( 'Rotation1', #288 ) ;
#91 = CARTESIAN_POINT ( 'NONE',  ( 0.0000000000000000000, 0.0000000000000000000, 0.0000000000000000000 ) ) ;
#92 =( LENGTH_UNIT ( ) NAMED_UNIT ( * ) SI_UNIT ( .MILLI., .METRE. ) );
#93 = DIRECTION ( 'NONE',  ( -0.0000000000000000000, -0.0000000000000000000, 1.000000000000000000 ) ) ;
#94 = VERTEX_POINT ( 'NONE', #14 ) ;
#95 = ORIENTED_EDGE ( 'NONE', *, *, #203, .F. ) ;
#96 = ORIENTED_EDGE ( 'NONE', *, *, #233, .T. ) ;
#97 = MECHANICAL_DESIGN_GEOMETRIC_PRESENTATION_REPRESENTATION (  '', ( #48 ), #115 ) ;
#98 = SURFACE_SIDE_STYLE ('',( #225 ) ) ;
#99 = EDGE_CURVE ( 'NONE', #301, #41, #311, .T. ) ;
#100 = EDGE_LOOP ( 'NONE', ( #124, #107 ) ) ;
#101 = EDGE_LOOP ( 'NONE', ( #284, #307, #224, #136 ) ) ;
#102 = CARTESIAN_POINT ( 'NONE',  ( 0.0000000000000000000, 0.0000000000000000000, -3.000000000000000000 ) ) ;
#103 = ADVANCED_FACE ( 'NONE', ( #140 ), #8, .T. ) ;
#104 = AXIS2_PLACEMENT_3D ( 'NONE', #5, #191, #40 ) ;
#105 = ORIENTED_EDGE ( 'NONE', *, *, #196, .F. ) ;
#106 = CARTESIAN_POINT ( 'NONE',  ( 0.0000000000000000000, 0.0000000000000000000, -0.9999999999999965600 ) ) ;
#107 = ORIENTED_EDGE ( 'NONE', *, *, #119, .T. ) ;
#108 = DIRECTION ( 'NONE',  ( 1.000000000000000000, 0.0000000000000000000, 0.0000000000000000000 ) ) ;
#109 = CARTESIAN_POINT ( 'NONE',  ( 84.55808929720140600, 0.0000000000000000000, -3.000000000000000000 ) ) ;
#110 = LINE ( 'NONE', #128, #59 ) ;
#111 = DIRECTION ( 'NONE',  ( -0.0000000000000000000, -0.0000000000000000000, 1.000000000000000000 ) ) ;
#112 = CIRCLE ( 'NONE', #176, 85.65000000000000600 ) ;
#113 = ADVANCED_FACE ( 'NONE', ( #18 ), #11, .F. ) ;
#114 = FACE_OUTER_BOUND ( 'NONE', #37, .T. ) ;
#115 =( GEOMETRIC_REPRESENTATION_CONTEXT ( 3 ) GLOBAL_UNCERTAINTY_ASSIGNED_CONTEXT ( ( #158 ) ) GLOBAL_UNIT_ASSIGNED_CONTEXT ( ( #206, #186, #310 ) ) REPRESENTATION_CONTEXT ( 'NONE', 'WORKASPACE' ) );
#116 = CARTESIAN_POINT ( 'NONE',  ( 0.0000000000000000000, 0.0000000000000000000, -0.9999999999999970000 ) ) ;
#117 = ORIENTED_EDGE ( 'NONE', *, *, #223, .F. ) ;
#118 = DIRECTION ( 'NONE',  ( -0.0000000000000000000, -0.0000000000000000000, 1.000000000000000000 ) ) ;
#119 = EDGE_CURVE ( 'NONE', #236, #1, #266, .T. ) ;
#120 = DIRECTION ( 'NONE',  ( -0.0000000000000000000, -0.0000000000000000000, 1.000000000000000000 ) ) ;
#121 =( LENGTH_UNIT ( ) NAMED_UNIT ( * ) SI_UNIT ( .MILLI., .METRE. ) );
#122 = CARTESIAN_POINT ( 'NONE',  ( 0.0000000000000000000, 0.0000000000000000000, 0.0000000000000000000 ) ) ;
#123 = FACE_OUTER_BOUND ( 'NONE', #232, .T. ) ;
#124 = ORIENTED_EDGE ( 'NONE', *, *, #152, .T. ) ;
#125 =( NAMED_UNIT ( * ) SI_UNIT ( $, .STERADIAN. ) SOLID_ANGLE_UNIT ( ) );
#126 = AXIS2_PLACEMENT_3D ( 'NONE', #145, #118, #168 ) ;
#127 = DIRECTION ( 'NONE',  ( -0.0000000000000000000, -0.0000000000000000000, 1.000000000000000000 ) ) ;
#128 = CARTESIAN_POINT ( 'NONE',  ( 84.55808929720140600, 0.0000000000000000000, -3.000000000000000000 ) ) ;
#129 = ORIENTED_EDGE ( 'NONE', *, *, #152, .F. ) ;
#130 = DIRECTION ( 'NONE',  ( 1.000000000000000000, 0.0000000000000000000, 0.0000000000000000000 ) ) ;
#131 = DIRECTION ( 'NONE',  ( -0.0000000000000000000, -0.0000000000000000000, 1.000000000000000000 ) ) ;
#132 = LINE ( 'NONE', #179, #49 ) ;
#133 = DIRECTION ( 'NONE',  ( -0.0000000000000000000, -0.0000000000000000000, 1.000000000000000000 ) ) ;
#134 = AXIS2_PLACEMENT_3D ( 'NONE', #248, #93, #265 ) ;
#135 = EDGE_LOOP ( 'NONE', ( #89, #177 ) ) ;
#136 = ORIENTED_EDGE ( 'NONE', *, *, #85, .T. ) ;
#137 = CARTESIAN_POINT ( 'NONE',  ( 0.0000000000000000000, 0.0000000000000000000, 0.0000000000000000000 ) ) ;
#138 = EDGE_CURVE ( 'NONE', #41, #236, #132, .T. ) ;
#139 = AXIS2_PLACEMENT_3D ( 'NONE', #9, #195, #42 ) ;
#140 = FACE_OUTER_BOUND ( 'NONE', #272, .T. ) ;
#141 = ORIENTED_EDGE ( 'NONE', *, *, #99, .F. ) ;
#142 = CARTESIAN_POINT ( 'NONE',  ( 0.0000000000000000000, 0.0000000000000000000, -1.000229926742460600 ) ) ;
#143 = DIRECTION ( 'NONE',  ( 1.000000000000000000, 0.0000000000000000000, 0.0000000000000000000 ) ) ;
#144 = CIRCLE ( 'NONE', #244, 85.65000000000000600 ) ;
#145 = CARTESIAN_POINT ( 'NONE',  ( 0.0000000000000000000, 0.0000000000000000000, -3.000000000000000000 ) ) ;
#146 = EDGE_CURVE ( 'NONE', #202, #94, #19, .T. ) ;
#147 = CARTESIAN_POINT ( 'NONE',  ( 0.0000000000000000000, 0.0000000000000000000, 0.0000000000000000000 ) ) ;
#148 = CIRCLE ( 'NONE', #261, 79.25000000000000000 ) ;
#149 =( NAMED_UNIT ( * ) SI_UNIT ( $, .STERADIAN. ) SOLID_ANGLE_UNIT ( ) );
#150 = DIRECTION ( 'NONE',  ( 0.0000000000000000000, 0.0000000000000000000, 1.000000000000000000 ) ) ;
#151 = AXIS2_PLACEMENT_3D ( 'NONE', #102, #22, #226 ) ;
#152 = EDGE_CURVE ( 'NONE', #1, #236, #51, .T. ) ;
#153 = PRODUCT ( '402DFL160-Z', '402DFL160-Z', '', ( #175 ) ) ;
#154 = AXIS2_PLACEMENT_3D ( 'NONE', #91, #193, #6 ) ;
#155 = CARTESIAN_POINT ( 'NONE',  ( 83.50499999999999500, 0.0000000000000000000, -0.9999999999999965600 ) ) ;
#156 = CARTESIAN_POINT ( 'NONE',  ( 0.0000000000000000000, 0.0000000000000000000, -3.000000000000000000 ) ) ;
#157 = DIRECTION ( 'NONE',  ( -0.0000000000000000000, -0.0000000000000000000, 1.000000000000000000 ) ) ;
#158 = UNCERTAINTY_MEASURE_WITH_UNIT (LENGTH_MEASURE( 1.000000000000000100E-005 ), #206, 'distance_accuracy_value', 'NONE');
#159 = EDGE_CURVE ( 'NONE', #202, #207, #35, .T. ) ;
#160 = CIRCLE ( 'NONE', #86, 79.25000000000000000 ) ;
#161 = ORIENTED_EDGE ( 'NONE', *, *, #181, .F. ) ;
#162 = VERTEX_POINT ( 'NONE', #109 ) ;
#163 = CONICAL_SURFACE ( 'NONE', #249, 85.65000000000000600, 1.134464013796320000 ) ;
#164 = DIRECTION ( 'NONE',  ( 1.000000000000000000, 0.0000000000000000000, 0.0000000000000000000 ) ) ;
#165 = AXIS2_PLACEMENT_3D ( 'NONE', #309, #194, #26 ) ;
#166 = DIRECTION ( 'NONE',  ( -0.3420201433256663800, 4.188538737676964000E-017, 0.9396926207859093200 ) ) ;
#167 = PRODUCT_DEFINITION_CONTEXT ( 'detailed design', #16, 'design' ) ;
#168 = DIRECTION ( 'NONE',  ( 1.000000000000000000, 0.0000000000000000000, 0.0000000000000000000 ) ) ;
#169 = EDGE_CURVE ( 'NONE', #301, #1, #30, .T. ) ;
#170 = VERTEX_POINT ( 'NONE', #313 ) ;
#171 = ORIENTED_EDGE ( 'NONE', *, *, #196, .T. ) ;
#172 = CARTESIAN_POINT ( 'NONE',  ( 0.0000000000000000000, 0.0000000000000000000, 0.0000000000000000000 ) ) ;
#173 = APPLICATION_PROTOCOL_DEFINITION ( 'draft international standard', 'automotive_design', 1998, #199 ) ;
#174 = CONICAL_SURFACE ( 'NONE', #126, 84.55808929720140600, 0.3490658503988634000 ) ;
#175 = PRODUCT_CONTEXT ( 'NONE', #199, 'mechanical' ) ;
#176 = AXIS2_PLACEMENT_3D ( 'NONE', #172, #13, #197 ) ;
#177 = ORIENTED_EDGE ( 'NONE', *, *, #31, .F. ) ;
#178 = CARTESIAN_POINT ( 'NONE',  ( -79.25000000000000000, 0.0000000000000000000, -0.9999999999999967800 ) ) ;
#179 = CARTESIAN_POINT ( 'NONE',  ( -83.50499999999999500, 1.022641309627997200E-014, 0.0000000000000000000 ) ) ;
#180 = ORIENTED_EDGE ( 'NONE', *, *, #138, .T. ) ;
#181 = EDGE_CURVE ( 'NONE', #162, #214, #110, .T. ) ;
#182 = COLOUR_RGB ( '',0.3843137254901960500, 0.3843137254901960500, 0.3843137254901960500 ) ;
#183 = COLOUR_RGB ( '',0.3843137254901960500, 0.3843137254901960500, 0.3843137254901960500 ) ;
#184 = ORIENTED_EDGE ( 'NONE', *, *, #7, .F. ) ;
#185 = ORIENTED_EDGE ( 'NONE', *, *, #188, .F. ) ;
#186 =( NAMED_UNIT ( * ) PLANE_ANGLE_UNIT ( ) SI_UNIT ( $, .RADIAN. ) );
#187 = DIRECTION ( 'NONE',  ( 1.000000000000000000, 0.0000000000000000000, 0.0000000000000000000 ) ) ;
#188 = EDGE_CURVE ( 'NONE', #41, #301, #84, .T. ) ;
#189 = ADVANCED_FACE ( 'NONE', ( #73, #289 ), #275, .F. ) ;
#190 = CIRCLE ( 'NONE', #139, 84.55808929720140600 ) ;
#191 = DIRECTION ( 'NONE',  ( 0.0000000000000000000, -0.0000000000000000000, 1.000000000000000000 ) ) ;
#192 = ORIENTED_EDGE ( 'NONE', *, *, #208, .T. ) ;
#193 = DIRECTION ( 'NONE',  ( -0.0000000000000000000, -0.0000000000000000000, 1.000000000000000000 ) ) ;
#194 = DIRECTION ( 'NONE',  ( -0.0000000000000000000, -0.0000000000000000000, 1.000000000000000000 ) ) ;
#195 = DIRECTION ( 'NONE',  ( -0.0000000000000000000, -0.0000000000000000000, 1.000000000000000000 ) ) ;
#196 = EDGE_CURVE ( 'NONE', #207, #80, #160, .T. ) ;
#197 = DIRECTION ( 'NONE',  ( 1.000000000000000000, 0.0000000000000000000, 0.0000000000000000000 ) ) ;
#198 = DIRECTION ( 'NONE',  ( 1.000000000000000000, 0.0000000000000000000, 0.0000000000000000000 ) ) ;
#199 = APPLICATION_CONTEXT ( 'automotive_design' ) ;
#200 = APPLICATION_PROTOCOL_DEFINITION ( 'draft international standard', 'automotive_design', 1998, #16 ) ;
#201 = EDGE_LOOP ( 'NONE', ( #231, #141, #251, #96 ) ) ;
#202 = VERTEX_POINT ( 'NONE', #282 ) ;
#203 = EDGE_CURVE ( 'NONE', #298, #170, #57, .T. ) ;
#204 = ADVANCED_FACE ( 'NONE', ( #2 ), #299, .T. ) ;
#205 =( GEOMETRIC_REPRESENTATION_CONTEXT ( 3 ) GLOBAL_UNCERTAINTY_ASSIGNED_CONTEXT ( ( #314 ) ) GLOBAL_UNIT_ASSIGNED_CONTEXT ( ( #121, #279, #149 ) ) REPRESENTATION_CONTEXT ( 'NONE', 'WORKASPACE' ) );
#206 =( LENGTH_UNIT ( ) NAMED_UNIT ( * ) SI_UNIT ( .MILLI., .METRE. ) );
#207 = VERTEX_POINT ( 'NONE', #213 ) ;
#208 = EDGE_CURVE ( 'NONE', #41, #170, #52, .T. ) ;
#209 = FACE_OUTER_BOUND ( 'NONE', #101, .T. ) ;
#210 = FACE_BOUND ( 'NONE', #227, .T. ) ;
#211 = PRESENTATION_STYLE_ASSIGNMENT (( #241 ) ) ;
#212 = EDGE_LOOP ( 'NONE', ( #219, #246 ) ) ;
#213 = CARTESIAN_POINT ( 'NONE',  ( -79.25000000000000000, 9.705325883242774700E-015, -0.9999999999999970000 ) ) ;
#214 = VERTEX_POINT ( 'NONE', #64 ) ;
#215 = EDGE_CURVE ( 'NONE', #162, #298, #190, .T. ) ;
#216 = FILL_AREA_STYLE ('',( #44 ) ) ;
#217 = CIRCLE ( 'NONE', #3, 79.25000000000000000 ) ;
#218 = AXIS2_PLACEMENT_3D ( 'NONE', #278, #302, #43 ) ;
#219 = ORIENTED_EDGE ( 'NONE', *, *, #50, .T. ) ;
#220 = ADVANCED_FACE ( 'NONE', ( #123 ), #174, .T. ) ;
#221 = PLANE ( 'NONE',  #62 ) ;
#222 = PRODUCT_DEFINITION_SHAPE ( 'NONE', 'NONE',  #46 ) ;
#223 = EDGE_CURVE ( 'NONE', #94, #80, #245, .T. ) ;
#224 = ORIENTED_EDGE ( 'NONE', *, *, #223, .T. ) ;
#225 = SURFACE_STYLE_FILL_AREA ( #74 ) ;
#226 = DIRECTION ( 'NONE',  ( 1.000000000000000000, 0.0000000000000000000, 0.0000000000000000000 ) ) ;
#227 = EDGE_LOOP ( 'NONE', ( #24, #105 ) ) ;
#228 = ORIENTED_EDGE ( 'NONE', *, *, #188, .T. ) ;
#229 = LINE ( 'NONE', #287, #285 ) ;
#230 = DIRECTION ( 'NONE',  ( -0.0000000000000000000, -0.0000000000000000000, 1.000000000000000000 ) ) ;
#231 = ORIENTED_EDGE ( 'NONE', *, *, #208, .F. ) ;
#232 = EDGE_LOOP ( 'NONE', ( #292, #286, #273, #161 ) ) ;
#233 = EDGE_CURVE ( 'NONE', #214, #170, #112, .T. ) ;
#234 = ORIENTED_EDGE ( 'NONE', *, *, #31, .T. ) ;
#235 = STYLED_ITEM ( 'NONE', ( #211 ), #243 ) ;
#236 = VERTEX_POINT ( 'NONE', #66 ) ;
#237 = DIRECTION ( 'NONE',  ( 0.3420201433256663800, 0.0000000000000000000, 0.9396926207859093200 ) ) ;
#238 = ORIENTED_EDGE ( 'NONE', *, *, #99, .T. ) ;
#239 = CARTESIAN_POINT ( 'NONE',  ( 83.50499999999999500, 0.0000000000000000000, -1.000229926742460600 ) ) ;
#240 = VECTOR ( 'NONE', #257, 1000.000000000000000 ) ;
#241 = SURFACE_STYLE_USAGE ( .BOTH. , #70 ) ;
#242 = CARTESIAN_POINT ( 'NONE',  ( 0.0000000000000000000, 0.0000000000000000000, 0.0000000000000000000 ) ) ;
#243 = ADVANCED_BREP_SHAPE_REPRESENTATION ( '402DFL160-Z', ( #90, #27 ), #205 ) ;
#244 = AXIS2_PLACEMENT_3D ( 'NONE', #242, #294, #267 ) ;
#245 = LINE ( 'NONE', #258, #290 ) ;
#246 = ORIENTED_EDGE ( 'NONE', *, *, #146, .T. ) ;
#247 = ORIENTED_EDGE ( 'NONE', *, *, #159, .T. ) ;
#248 = CARTESIAN_POINT ( 'NONE',  ( 0.0000000000000000000, 0.0000000000000000000, -1.000229926742460600 ) ) ;
#249 = AXIS2_PLACEMENT_3D ( 'NONE', #60, #83, #87 ) ;
#250 = DIRECTION ( 'NONE',  ( -0.0000000000000000000, -0.0000000000000000000, 1.000000000000000000 ) ) ;
#251 = ORIENTED_EDGE ( 'NONE', *, *, #65, .T. ) ;
#252 = DIRECTION ( 'NONE',  ( -0.0000000000000000000, -0.0000000000000000000, 1.000000000000000000 ) ) ;
#253 = ORIENTED_EDGE ( 'NONE', *, *, #65, .F. ) ;
#254 = ORIENTED_EDGE ( 'NONE', *, *, #119, .F. ) ;
#255 = FACE_OUTER_BOUND ( 'NONE', #55, .T. ) ;
#256 = CARTESIAN_POINT ( 'NONE',  ( -85.65000000000000600, 1.048909983469708100E-014, 0.0000000000000000000 ) ) ;
#257 = DIRECTION ( 'NONE',  ( -0.9063077870366523800, 1.109906930436757400E-016, 0.4226182617406942200 ) ) ;
#258 = CARTESIAN_POINT ( 'NONE',  ( 79.25000000000000000, 0.0000000000000000000, 0.0000000000000000000 ) ) ;
#259 =( NAMED_UNIT ( * ) PLANE_ANGLE_UNIT ( ) SI_UNIT ( $, .RADIAN. ) );
#260 = PRESENTATION_LAYER_ASSIGNMENT (  '', '', ( #235 ) ) ;
#261 = AXIS2_PLACEMENT_3D ( 'NONE', #69, #127, #198 ) ;
#262 = ORIENTED_EDGE ( 'NONE', *, *, #169, .T. ) ;
#263 = DIRECTION ( 'NONE',  ( -1.000000000000000000, 0.0000000000000000000, -0.0000000000000000000 ) ) ;
#264 = ADVANCED_FACE ( 'NONE', ( #45 ), #283, .F. ) ;
#265 = DIRECTION ( 'NONE',  ( 1.000000000000000000, 0.0000000000000000000, 0.0000000000000000000 ) ) ;
#266 = CIRCLE ( 'NONE', #308, 83.50499999999999500 ) ;
#267 = DIRECTION ( 'NONE',  ( 1.000000000000000000, 0.0000000000000000000, 0.0000000000000000000 ) ) ;
#268 = DIRECTION ( 'NONE',  ( 1.000000000000000000, 0.0000000000000000000, 0.0000000000000000000 ) ) ;
#269 = CYLINDRICAL_SURFACE ( 'NONE', #29, 83.50499999999999500 ) ;
#270 = MECHANICAL_DESIGN_GEOMETRIC_PRESENTATION_REPRESENTATION (  '', ( #235 ), #293 ) ;
#271 = AXIS2_PLACEMENT_3D ( 'NONE', #156, #133, #108 ) ;
#272 = EDGE_LOOP ( 'NONE', ( #95, #234, #54, #184 ) ) ;
#273 = ORIENTED_EDGE ( 'NONE', *, *, #233, .F. ) ;
#274 = UNCERTAINTY_MEASURE_WITH_UNIT (LENGTH_MEASURE( 1.000000000000000100E-005 ), #92, 'distance_accuracy_value', 'NONE');
#275 = PLANE ( 'NONE',  #104 ) ;
#276 = DIRECTION ( 'NONE',  ( -0.0000000000000000000, -0.0000000000000000000, 1.000000000000000000 ) ) ;
#277 = CARTESIAN_POINT ( 'NONE',  ( 79.25000000000000000, 0.0000000000000000000, -0.9999999999999970000 ) ) ;
#278 = CARTESIAN_POINT ( 'NONE',  ( 0.0000000000000000000, 0.0000000000000000000, 0.0000000000000000000 ) ) ;
#279 =( NAMED_UNIT ( * ) PLANE_ANGLE_UNIT ( ) SI_UNIT ( $, .RADIAN. ) );
#280 = DIRECTION ( 'NONE',  ( 1.000000000000000000, 0.0000000000000000000, 0.0000000000000000000 ) ) ;
#281 = DIRECTION ( 'NONE',  ( -0.0000000000000000000, -0.0000000000000000000, 1.000000000000000000 ) ) ;
#282 = CARTESIAN_POINT ( 'NONE',  ( -79.25000000000000000, 9.705325883242774700E-015, -3.000000000000000000 ) ) ;
#283 = CYLINDRICAL_SURFACE ( 'NONE', #218, 79.25000000000000000 ) ;
#284 = ORIENTED_EDGE ( 'NONE', *, *, #159, .F. ) ;
#285 = VECTOR ( 'NONE', #312, 1000.000000000000000 ) ;
#286 = ORIENTED_EDGE ( 'NONE', *, *, #203, .T. ) ;
#287 = CARTESIAN_POINT ( 'NONE',  ( 85.65000000000000600, 0.0000000000000000000, 0.0000000000000000000 ) ) ;
#288 = CLOSED_SHELL ( 'NONE', ( #220, #20, #75, #264, #23, #88, #204, #113, #103, #189 ) ) ;
#289 = FACE_BOUND ( 'NONE', #212, .T. ) ;
#290 = VECTOR ( 'NONE', #120, 1000.000000000000000 ) ;
#291 = CARTESIAN_POINT ( 'NONE',  ( -84.55808929720140600, 1.035537933998337700E-014, -3.000000000000000000 ) ) ;
#292 = ORIENTED_EDGE ( 'NONE', *, *, #215, .T. ) ;
#293 =( GEOMETRIC_REPRESENTATION_CONTEXT ( 3 ) GLOBAL_UNCERTAINTY_ASSIGNED_CONTEXT ( ( #274 ) ) GLOBAL_UNIT_ASSIGNED_CONTEXT ( ( #92, #259, #125 ) ) REPRESENTATION_CONTEXT ( 'NONE', 'WORKASPACE' ) );
#294 = DIRECTION ( 'NONE',  ( -0.0000000000000000000, -0.0000000000000000000, 1.000000000000000000 ) ) ;
#295 = AXIS2_PLACEMENT_3D ( 'NONE', #137, #131, #28 ) ;
#296 = CARTESIAN_POINT ( 'NONE',  ( 0.0000000000000000000, 0.0000000000000000000, -3.000000000000000000 ) ) ;
#297 = ORIENTED_EDGE ( 'NONE', *, *, #146, .F. ) ;
#298 = VERTEX_POINT ( 'NONE', #68 ) ;
#299 = CYLINDRICAL_SURFACE ( 'NONE', #154, 83.50499999999999500 ) ;
#300 = DIRECTION ( 'NONE',  ( -0.0000000000000000000, -0.0000000000000000000, 1.000000000000000000 ) ) ;
#301 = VERTEX_POINT ( 'NONE', #239 ) ;
#302 = DIRECTION ( 'NONE',  ( -0.0000000000000000000, -0.0000000000000000000, 1.000000000000000000 ) ) ;
#303 = VECTOR ( 'NONE', #166, 1000.000000000000100 ) ;
#304 = DIRECTION ( 'NONE',  ( 1.000000000000000000, 0.0000000000000000000, 0.0000000000000000000 ) ) ;
#305 = CARTESIAN_POINT ( 'NONE',  ( -83.50499999999999500, 1.022641309627997200E-014, -1.000229926742460600 ) ) ;
#306 = ORIENTED_EDGE ( 'NONE', *, *, #169, .F. ) ;
#307 = ORIENTED_EDGE ( 'NONE', *, *, #50, .F. ) ;
#308 = AXIS2_PLACEMENT_3D ( 'NONE', #106, #10, #130 ) ;
#309 = CARTESIAN_POINT ( 'NONE',  ( 0.0000000000000000000, 0.0000000000000000000, 0.0000000000000000000 ) ) ;
#310 =( NAMED_UNIT ( * ) SI_UNIT ( $, .STERADIAN. ) SOLID_ANGLE_UNIT ( ) );
#311 = CIRCLE ( 'NONE', #134, 83.50499999999999500 ) ;
#312 = DIRECTION ( 'NONE',  ( 0.9063077870366523800, 0.0000000000000000000, 0.4226182617406942200 ) ) ;
#313 = CARTESIAN_POINT ( 'NONE',  ( -85.65000000000000600, 1.048909983469708100E-014, 0.0000000000000000000 ) ) ;
#314 = UNCERTAINTY_MEASURE_WITH_UNIT (LENGTH_MEASURE( 1.000000000000000100E-005 ), #121, 'distance_accuracy_value', 'NONE');
ENDSEC;
END-ISO-10303-21;
