ISO-10303-21;
HEADER;
FILE_DESCRIPTION (( 'STEP AP214' ),
    '1' );
FILE_NAME ('304DOR160-S1.step',
    '2017-07-07T05:02:44',
    ( 'install' ),
    ( '' ),
    'SwSTEP 2.0',
    'SolidWorks 2015',
    '' );
FILE_SCHEMA (( 'AUTOMOTIVE_DESIGN' ));
ENDSEC;

DATA;
#1 = ORIENTED_EDGE ( 'NONE', *, *, #100, .F. ) ;
#2 = ORIENTED_EDGE ( 'NONE', *, *, #8, .T. ) ;
#3 =( GEOMETRIC_REPRESENTATION_CONTEXT ( 3 ) GLOBAL_UNCERTAINTY_ASSIGNED_CONTEXT ( ( #76 ) ) GLOBAL_UNIT_ASSIGNED_CONTEXT ( ( #142, #156, #155 ) ) REPRESENTATION_CONTEXT ( 'NONE', 'WORKASPACE' ) );
#4 = AXIS2_PLACEMENT_3D ( 'NONE', #122, #72, #10 ) ;
#5 =( NAMED_UNIT ( * ) SI_UNIT ( $, .STERADIAN. ) SOLID_ANGLE_UNIT ( ) );
#6 = CARTESIAN_POINT ( 'NONE',  ( 0.0000000000000000000, 0.0000000000000000000, 0.0000000000000000000 ) ) ;
#7 = CARTESIAN_POINT ( 'NONE',  ( 0.0000000000000000000, 0.0000000000000000000, 0.0000000000000000000 ) ) ;
#8 = EDGE_CURVE ( 'NONE', #78, #96, #50, .T. ) ;
#9 = ORIENTED_EDGE ( 'NONE', *, *, #8, .F. ) ;
#10 = DIRECTION ( 'NONE',  ( -1.000000000000000000, 0.0000000000000000000, 0.0000000000000000000 ) ) ;
#11 = EDGE_LOOP ( 'NONE', ( #135, #102, #60, #13 ) ) ;
#12 = MECHANICAL_DESIGN_GEOMETRIC_PRESENTATION_REPRESENTATION (  '', ( #154 ), #75 ) ;
#13 = ORIENTED_EDGE ( 'NONE', *, *, #120, .F. ) ;
#14 = DIRECTION ( 'NONE',  ( -0.0000000000000000000, -0.0000000000000000000, -1.000000000000000000 ) ) ;
#15 = ADVANCED_FACE ( 'NONE', ( #26 ), #89, .T. ) ;
#16 = DIRECTION ( 'NONE',  ( -1.000000000000000000, 0.0000000000000000000, 0.0000000000000000000 ) ) ;
#17 = AXIS2_PLACEMENT_3D ( 'NONE', #62, #82, #41 ) ;
#18 = PRESENTATION_LAYER_ASSIGNMENT (  '', '', ( #154 ) ) ;
#19 = CARTESIAN_POINT ( 'NONE',  ( 81.66500000000000600, 1.000107808523685900E-014, 0.0000000000000000000 ) ) ;
#20 = UNCERTAINTY_MEASURE_WITH_UNIT (LENGTH_MEASURE( 1.000000000000000100E-005 ), #146, 'distance_accuracy_value', 'NONE');
#21 = CARTESIAN_POINT ( 'NONE',  ( 0.0000000000000000000, 0.0000000000000000000, 3.263683719727692600E-016 ) ) ;
#22 = EDGE_CURVE ( 'NONE', #96, #34, #152, .T. ) ;
#23 = ORIENTED_EDGE ( 'NONE', *, *, #46, .T. ) ;
#24 = DIRECTION ( 'NONE',  ( 0.0000000000000000000, -1.000000000000000000, 0.0000000000000000000 ) ) ;
#25 = CARTESIAN_POINT ( 'NONE',  ( 84.32999999999999800, 1.032744645720962900E-014, 0.0000000000000000000 ) ) ;
#26 = FACE_OUTER_BOUND ( 'NONE', #131, .T. ) ;
#27 = ORIENTED_EDGE ( 'NONE', *, *, #46, .F. ) ;
#28 = SURFACE_SIDE_STYLE ('',( #105 ) ) ;
#29 = EDGE_LOOP ( 'NONE', ( #69, #23, #109, #9 ) ) ;
#30 = DIRECTION ( 'NONE',  ( -1.000000000000000000, -1.224646799147351500E-016, 0.0000000000000000000 ) ) ;
#31 = DIRECTION ( 'NONE',  ( -1.000000000000000000, 0.0000000000000000000, 0.0000000000000000000 ) ) ;
#32 = AXIS2_PLACEMENT_3D ( 'NONE', #79, #115, #93 ) ;
#33 = CIRCLE ( 'NONE', #80, 2.665000000000000900 ) ;
#34 = VERTEX_POINT ( 'NONE', #25 ) ;
#35 = AXIS2_PLACEMENT_3D ( 'NONE', #7, #14, #31 ) ;
#36 = PRESENTATION_LAYER_ASSIGNMENT (  '', '', ( #118 ) ) ;
#37 = ORIENTED_EDGE ( 'NONE', *, *, #22, .T. ) ;
#38 = DIRECTION ( 'NONE',  ( -0.0000000000000000000, -0.0000000000000000000, -1.000000000000000000 ) ) ;
#39 = AXIS2_PLACEMENT_3D ( 'NONE', #91, #92, #111 ) ;
#40 = PRODUCT_CONTEXT ( 'NONE', #141, 'mechanical' ) ;
#41 = DIRECTION ( 'NONE',  ( -1.000000000000000000, 0.0000000000000000000, 0.0000000000000000000 ) ) ;
#42 = DIRECTION ( 'NONE',  ( -1.000000000000000000, -1.224646799147351500E-016, 0.0000000000000000000 ) ) ;
#43 = APPLICATION_CONTEXT ( 'automotive_design' ) ;
#44 = DIRECTION ( 'NONE',  ( 1.000000000000000000, 0.0000000000000000000, 0.0000000000000000000 ) ) ;
#45 = SHAPE_DEFINITION_REPRESENTATION ( #137, #47 ) ;
#46 = EDGE_CURVE ( 'NONE', #51, #34, #68, .T. ) ;
#47 = ADVANCED_BREP_SHAPE_REPRESENTATION ( '304DOR160-S1', ( #133, #83 ), #3 ) ;
#48 = EDGE_CURVE ( 'NONE', #51, #78, #86, .T. ) ;
#49 = MECHANICAL_DESIGN_GEOMETRIC_PRESENTATION_REPRESENTATION (  '', ( #118 ), #56 ) ;
#50 = CIRCLE ( 'NONE', #132, 79.00000000000000000 ) ;
#51 = VERTEX_POINT ( 'NONE', #119 ) ;
#52 = DIRECTION ( 'NONE',  ( -1.000000000000000000, 0.0000000000000000000, 0.0000000000000000000 ) ) ;
#53 = DIRECTION ( 'NONE',  ( -0.0000000000000000000, -0.0000000000000000000, -1.000000000000000000 ) ) ;
#54 = CARTESIAN_POINT ( 'NONE',  ( 0.0000000000000000000, 0.0000000000000000000, 0.0000000000000000000 ) ) ;
#55 = APPLICATION_PROTOCOL_DEFINITION ( 'draft international standard', 'automotive_design', 1998, #141 ) ;
#56 =( GEOMETRIC_REPRESENTATION_CONTEXT ( 3 ) GLOBAL_UNCERTAINTY_ASSIGNED_CONTEXT ( ( #20 ) ) GLOBAL_UNIT_ASSIGNED_CONTEXT ( ( #146, #70, #144 ) ) REPRESENTATION_CONTEXT ( 'NONE', 'WORKASPACE' ) );
#57 = DIRECTION ( 'NONE',  ( -1.000000000000000000, 0.0000000000000000000, 0.0000000000000000000 ) ) ;
#58 = SURFACE_SIDE_STYLE ('',( #77 ) ) ;
#59 = CARTESIAN_POINT ( 'NONE',  ( 79.00000000000000000, 9.674709713264090900E-015, 0.0000000000000000000 ) ) ;
#60 = ORIENTED_EDGE ( 'NONE', *, *, #48, .T. ) ;
#61 = CIRCLE ( 'NONE', #148, 84.32999999999999800 ) ;
#62 = CARTESIAN_POINT ( 'NONE',  ( 0.0000000000000000000, 0.0000000000000000000, 3.263683719727692600E-016 ) ) ;
#63 = ADVANCED_FACE ( 'NONE', ( #97 ), #157, .T. ) ;
#64 = AXIS2_PLACEMENT_3D ( 'NONE', #81, #67, #42 ) ;
#65 =( NAMED_UNIT ( * ) PLANE_ANGLE_UNIT ( ) SI_UNIT ( $, .RADIAN. ) );
#66 = DIRECTION ( 'NONE',  ( 0.0000000000000000000, 0.0000000000000000000, -1.000000000000000000 ) ) ;
#67 = DIRECTION ( 'NONE',  ( -1.224646799147353200E-016, 1.000000000000000000, 0.0000000000000000000 ) ) ;
#68 = CIRCLE ( 'NONE', #153, 84.32999999999999800 ) ;
#69 = ORIENTED_EDGE ( 'NONE', *, *, #48, .F. ) ;
#70 =( NAMED_UNIT ( * ) PLANE_ANGLE_UNIT ( ) SI_UNIT ( $, .RADIAN. ) );
#71 = PRODUCT_RELATED_PRODUCT_CATEGORY ( 'part', '', ( #73 ) ) ;
#72 = DIRECTION ( 'NONE',  ( -0.0000000000000000000, -0.0000000000000000000, -1.000000000000000000 ) ) ;
#73 = PRODUCT ( '304DOR160-S1', '304DOR160-S1', '', ( #40 ) ) ;
#74 = COLOUR_RGB ( '',0.6980392156862744700, 0.6980392156862744700, 0.6980392156862744700 ) ;
#75 =( GEOMETRIC_REPRESENTATION_CONTEXT ( 3 ) GLOBAL_UNCERTAINTY_ASSIGNED_CONTEXT ( ( #104 ) ) GLOBAL_UNIT_ASSIGNED_CONTEXT ( ( #116, #65, #5 ) ) REPRESENTATION_CONTEXT ( 'NONE', 'WORKASPACE' ) );
#76 = UNCERTAINTY_MEASURE_WITH_UNIT (LENGTH_MEASURE( 1.000000000000000100E-005 ), #142, 'distance_accuracy_value', 'NONE');
#77 = SURFACE_STYLE_FILL_AREA ( #145 ) ;
#78 = VERTEX_POINT ( 'NONE', #128 ) ;
#79 = CARTESIAN_POINT ( 'NONE',  ( 0.0000000000000000000, 0.0000000000000000000, 0.0000000000000000000 ) ) ;
#80 = AXIS2_PLACEMENT_3D ( 'NONE', #19, #98, #30 ) ;
#81 = CARTESIAN_POINT ( 'NONE',  ( 81.66500000000000600, 1.000107808523685900E-014, 0.0000000000000000000 ) ) ;
#82 = DIRECTION ( 'NONE',  ( -0.0000000000000000000, -0.0000000000000000000, -1.000000000000000000 ) ) ;
#83 = AXIS2_PLACEMENT_3D ( 'NONE', #101, #85, #44 ) ;
#84 = CLOSED_SHELL ( 'NONE', ( #114, #63, #15, #127 ) ) ;
#85 = DIRECTION ( 'NONE',  ( 0.0000000000000000000, 0.0000000000000000000, 1.000000000000000000 ) ) ;
#86 = CIRCLE ( 'NONE', #149, 2.664999999999997400 ) ;
#87 = ORIENTED_EDGE ( 'NONE', *, *, #117, .F. ) ;
#88 = PRODUCT_DEFINITION ( 'UNKNOWN', '', #134, #108 ) ;
#89 = TOROIDAL_SURFACE ( 'NONE', #4, 81.66500000000000600, 2.664999999999997400 ) ;
#90 = FILL_AREA_STYLE ('',( #113 ) ) ;
#91 = CARTESIAN_POINT ( 'NONE',  ( -81.66500000000000600, 0.0000000000000000000, 0.0000000000000000000 ) ) ;
#92 = DIRECTION ( 'NONE',  ( 0.0000000000000000000, -1.000000000000000000, 0.0000000000000000000 ) ) ;
#93 = DIRECTION ( 'NONE',  ( -1.000000000000000000, 0.0000000000000000000, 0.0000000000000000000 ) ) ;
#94 = FACE_OUTER_BOUND ( 'NONE', #11, .T. ) ;
#95 = CARTESIAN_POINT ( 'NONE',  ( 0.0000000000000000000, 0.0000000000000000000, 0.0000000000000000000 ) ) ;
#96 = VERTEX_POINT ( 'NONE', #59 ) ;
#97 = FACE_OUTER_BOUND ( 'NONE', #29, .T. ) ;
#98 = DIRECTION ( 'NONE',  ( -1.224646799147353200E-016, 1.000000000000000000, 0.0000000000000000000 ) ) ;
#99 = EDGE_LOOP ( 'NONE', ( #1, #123, #139, #103 ) ) ;
#100 = EDGE_CURVE ( 'NONE', #34, #51, #61, .T. ) ;
#101 = CARTESIAN_POINT ( 'NONE',  ( 0.0000000000000000000, 0.0000000000000000000, 0.0000000000000000000 ) ) ;
#102 = ORIENTED_EDGE ( 'NONE', *, *, #100, .T. ) ;
#103 = ORIENTED_EDGE ( 'NONE', *, *, #117, .T. ) ;
#104 = UNCERTAINTY_MEASURE_WITH_UNIT (LENGTH_MEASURE( 1.000000000000000100E-005 ), #116, 'distance_accuracy_value', 'NONE');
#105 = SURFACE_STYLE_FILL_AREA ( #90 ) ;
#106 = CIRCLE ( 'NONE', #17, 79.00000000000000000 ) ;
#107 = EDGE_CURVE ( 'NONE', #34, #96, #33, .T. ) ;
#108 = PRODUCT_DEFINITION_CONTEXT ( 'detailed design', #43, 'design' ) ;
#109 = ORIENTED_EDGE ( 'NONE', *, *, #107, .T. ) ;
#110 = AXIS2_PLACEMENT_3D ( 'NONE', #6, #38, #140 ) ;
#111 = DIRECTION ( 'NONE',  ( 0.0000000000000000000, 0.0000000000000000000, -1.000000000000000000 ) ) ;
#112 = DIRECTION ( 'NONE',  ( -0.0000000000000000000, -0.0000000000000000000, -1.000000000000000000 ) ) ;
#113 = FILL_AREA_STYLE_COLOUR ( '', #126 ) ;
#114 = ADVANCED_FACE ( 'NONE', ( #94 ), #151, .T. ) ;
#115 = DIRECTION ( 'NONE',  ( -0.0000000000000000000, -0.0000000000000000000, -1.000000000000000000 ) ) ;
#116 =( LENGTH_UNIT ( ) NAMED_UNIT ( * ) SI_UNIT ( .MILLI., .METRE. ) );
#117 = EDGE_CURVE ( 'NONE', #78, #51, #124, .T. ) ;
#118 = STYLED_ITEM ( 'NONE', ( #121 ), #47 ) ;
#119 = CARTESIAN_POINT ( 'NONE',  ( -84.32999999999999800, 0.0000000000000000000, 0.0000000000000000000 ) ) ;
#120 = EDGE_CURVE ( 'NONE', #96, #78, #106, .T. ) ;
#121 = PRESENTATION_STYLE_ASSIGNMENT (( #136 ) ) ;
#122 = CARTESIAN_POINT ( 'NONE',  ( 0.0000000000000000000, 0.0000000000000000000, 0.0000000000000000000 ) ) ;
#123 = ORIENTED_EDGE ( 'NONE', *, *, #22, .F. ) ;
#124 = CIRCLE ( 'NONE', #39, 2.664999999999997400 ) ;
#125 = SURFACE_STYLE_USAGE ( .BOTH. , #28 ) ;
#126 = COLOUR_RGB ( '',0.6980392156862744700, 0.6980392156862744700, 0.6980392156862744700 ) ;
#127 = ADVANCED_FACE ( 'NONE', ( #147 ), #129, .T. ) ;
#128 = CARTESIAN_POINT ( 'NONE',  ( -79.00000000000000000, 0.0000000000000000000, 3.263683719727688200E-016 ) ) ;
#129 = TOROIDAL_SURFACE ( 'NONE', #32, 81.66500000000000600, 2.664999999999997400 ) ;
#130 = APPLICATION_PROTOCOL_DEFINITION ( 'draft international standard', 'automotive_design', 1998, #43 ) ;
#131 = EDGE_LOOP ( 'NONE', ( #27, #87, #2, #37 ) ) ;
#132 = AXIS2_PLACEMENT_3D ( 'NONE', #21, #150, #57 ) ;
#133 = MANIFOLD_SOLID_BREP ( 'Rotation1', #84 ) ;
#134 = PRODUCT_DEFINITION_FORMATION_WITH_SPECIFIED_SOURCE ( 'ANY', '', #73, .NOT_KNOWN. ) ;
#135 = ORIENTED_EDGE ( 'NONE', *, *, #107, .F. ) ;
#136 = SURFACE_STYLE_USAGE ( .BOTH. , #58 ) ;
#137 = PRODUCT_DEFINITION_SHAPE ( 'NONE', 'NONE',  #88 ) ;
#138 = FILL_AREA_STYLE_COLOUR ( '', #74 ) ;
#139 = ORIENTED_EDGE ( 'NONE', *, *, #120, .T. ) ;
#140 = DIRECTION ( 'NONE',  ( -1.000000000000000000, 0.0000000000000000000, 0.0000000000000000000 ) ) ;
#141 = APPLICATION_CONTEXT ( 'automotive_design' ) ;
#142 =( LENGTH_UNIT ( ) NAMED_UNIT ( * ) SI_UNIT ( .MILLI., .METRE. ) );
#143 = PRESENTATION_STYLE_ASSIGNMENT (( #125 ) ) ;
#144 =( NAMED_UNIT ( * ) SI_UNIT ( $, .STERADIAN. ) SOLID_ANGLE_UNIT ( ) );
#145 = FILL_AREA_STYLE ('',( #138 ) ) ;
#146 =( LENGTH_UNIT ( ) NAMED_UNIT ( * ) SI_UNIT ( .MILLI., .METRE. ) );
#147 = FACE_OUTER_BOUND ( 'NONE', #99, .T. ) ;
#148 = AXIS2_PLACEMENT_3D ( 'NONE', #54, #53, #52 ) ;
#149 = AXIS2_PLACEMENT_3D ( 'NONE', #158, #24, #66 ) ;
#150 = DIRECTION ( 'NONE',  ( -0.0000000000000000000, -0.0000000000000000000, -1.000000000000000000 ) ) ;
#151 = TOROIDAL_SURFACE ( 'NONE', #35, 81.66500000000000600, 2.664999999999997400 ) ;
#152 = CIRCLE ( 'NONE', #64, 2.665000000000000900 ) ;
#153 = AXIS2_PLACEMENT_3D ( 'NONE', #95, #112, #16 ) ;
#154 = STYLED_ITEM ( 'NONE', ( #143 ), #133 ) ;
#155 =( NAMED_UNIT ( * ) SI_UNIT ( $, .STERADIAN. ) SOLID_ANGLE_UNIT ( ) );
#156 =( NAMED_UNIT ( * ) PLANE_ANGLE_UNIT ( ) SI_UNIT ( $, .RADIAN. ) );
#157 = TOROIDAL_SURFACE ( 'NONE', #110, 81.66500000000000600, 2.664999999999997400 ) ;
#158 = CARTESIAN_POINT ( 'NONE',  ( -81.66500000000000600, 0.0000000000000000000, 0.0000000000000000000 ) ) ;
ENDSEC;
END-ISO-10303-21;
