ISO-10303-21;
HEADER;
FILE_DESCRIPTION (( 'STEP AP214' ),
    '1' );
FILE_NAME ('301DOR250-S1.step',
    '2017-07-07T05:04:24',
    ( 'install' ),
    ( '' ),
    'SwSTEP 2.0',
    'SolidWorks 2015',
    '' );
FILE_SCHEMA (( 'AUTOMOTIVE_DESIGN' ));
ENDSEC;

DATA;
#1 = EDGE_LOOP ( 'NONE', ( #28, #78, #147, #83 ) ) ;
#2 = CIRCLE ( 'NONE', #49, 2.665000000000000900 ) ;
#3 = DIRECTION ( 'NONE',  ( -0.0000000000000000000, -0.0000000000000000000, -1.000000000000000000 ) ) ;
#4 = ADVANCED_FACE ( 'NONE', ( #124 ), #54, .T. ) ;
#5 = APPLICATION_CONTEXT ( 'automotive_design' ) ;
#6 = DIRECTION ( 'NONE',  ( -1.000000000000000000, 0.0000000000000000000, 0.0000000000000000000 ) ) ;
#7 = VERTEX_POINT ( 'NONE', #152 ) ;
#8 = DIRECTION ( 'NONE',  ( -0.0000000000000000000, -0.0000000000000000000, -1.000000000000000000 ) ) ;
#9 = ADVANCED_BREP_SHAPE_REPRESENTATION ( '301DOR250-S1', ( #105, #25 ), #148 ) ;
#10 = PRODUCT_RELATED_PRODUCT_CATEGORY ( 'part', '', ( #59 ) ) ;
#11 = CARTESIAN_POINT ( 'NONE',  ( 0.0000000000000000000, 0.0000000000000000000, 3.263683719727701500E-016 ) ) ;
#12 = PRODUCT_DEFINITION_FORMATION_WITH_SPECIFIED_SOURCE ( 'ANY', '', #59, .NOT_KNOWN. ) ;
#13 = SURFACE_SIDE_STYLE ('',( #15 ) ) ;
#14 = CIRCLE ( 'NONE', #125, 126.5000000000000000 ) ;
#15 = SURFACE_STYLE_FILL_AREA ( #94 ) ;
#16 =( NAMED_UNIT ( * ) PLANE_ANGLE_UNIT ( ) SI_UNIT ( $, .RADIAN. ) );
#17 = AXIS2_PLACEMENT_3D ( 'NONE', #135, #55, #51 ) ;
#18 = PRODUCT_DEFINITION ( 'UNKNOWN', '', #12, #149 ) ;
#19 =( LENGTH_UNIT ( ) NAMED_UNIT ( * ) SI_UNIT ( .MILLI., .METRE. ) );
#20 = FILL_AREA_STYLE ('',( #22 ) ) ;
#21 = EDGE_CURVE ( 'NONE', #86, #67, #109, .T. ) ;
#22 = FILL_AREA_STYLE_COLOUR ( '', #123 ) ;
#23 = CARTESIAN_POINT ( 'NONE',  ( 0.0000000000000000000, 0.0000000000000000000, 0.0000000000000000000 ) ) ;
#24 = STYLED_ITEM ( 'NONE', ( #71 ), #105 ) ;
#25 = AXIS2_PLACEMENT_3D ( 'NONE', #23, #47, #92 ) ;
#26 = ADVANCED_FACE ( 'NONE', ( #142 ), #115, .T. ) ;
#27 = DIRECTION ( 'NONE',  ( -1.224646799147353200E-016, 1.000000000000000000, 0.0000000000000000000 ) ) ;
#28 = ORIENTED_EDGE ( 'NONE', *, *, #100, .F. ) ;
#29 = DIRECTION ( 'NONE',  ( -0.0000000000000000000, -0.0000000000000000000, -1.000000000000000000 ) ) ;
#30 = DIRECTION ( 'NONE',  ( -0.0000000000000000000, -0.0000000000000000000, -1.000000000000000000 ) ) ;
#31 = ADVANCED_FACE ( 'NONE', ( #95 ), #127, .T. ) ;
#32 = CIRCLE ( 'NONE', #140, 131.8300000000000100 ) ;
#33 = EDGE_CURVE ( 'NONE', #7, #67, #130, .T. ) ;
#34 = CARTESIAN_POINT ( 'NONE',  ( 131.8300000000000100, 1.614451875315955500E-014, 0.0000000000000000000 ) ) ;
#35 = PRODUCT_CONTEXT ( 'NONE', #80, 'mechanical' ) ;
#36 = APPLICATION_PROTOCOL_DEFINITION ( 'draft international standard', 'automotive_design', 1998, #5 ) ;
#37 = DIRECTION ( 'NONE',  ( 0.0000000000000000000, -1.000000000000000000, 0.0000000000000000000 ) ) ;
#38 = FILL_AREA_STYLE_COLOUR ( '', #65 ) ;
#39 = UNCERTAINTY_MEASURE_WITH_UNIT (LENGTH_MEASURE( 1.000000000000000100E-005 ), #81, 'distance_accuracy_value', 'NONE');
#40 = ORIENTED_EDGE ( 'NONE', *, *, #134, .F. ) ;
#41 = AXIS2_PLACEMENT_3D ( 'NONE', #121, #27, #93 ) ;
#42 = EDGE_LOOP ( 'NONE', ( #79, #64, #138, #45 ) ) ;
#43 = CARTESIAN_POINT ( 'NONE',  ( 0.0000000000000000000, 0.0000000000000000000, 0.0000000000000000000 ) ) ;
#44 = EDGE_CURVE ( 'NONE', #7, #69, #14, .T. ) ;
#45 = ORIENTED_EDGE ( 'NONE', *, *, #33, .T. ) ;
#46 = DIRECTION ( 'NONE',  ( 0.0000000000000000000, 0.0000000000000000000, -1.000000000000000000 ) ) ;
#47 = DIRECTION ( 'NONE',  ( 0.0000000000000000000, 0.0000000000000000000, 1.000000000000000000 ) ) ;
#48 = CLOSED_SHELL ( 'NONE', ( #26, #4, #31, #139 ) ) ;
#49 = AXIS2_PLACEMENT_3D ( 'NONE', #156, #145, #136 ) ;
#50 = CIRCLE ( 'NONE', #41, 2.665000000000000900 ) ;
#51 = DIRECTION ( 'NONE',  ( -1.000000000000000000, 0.0000000000000000000, 0.0000000000000000000 ) ) ;
#52 = ORIENTED_EDGE ( 'NONE', *, *, #116, .T. ) ;
#53 = CIRCLE ( 'NONE', #131, 2.665000000000004000 ) ;
#54 = TOROIDAL_SURFACE ( 'NONE', #62, 129.1649999999999900, 2.665000000000004000 ) ;
#55 = DIRECTION ( 'NONE',  ( -0.0000000000000000000, -0.0000000000000000000, -1.000000000000000000 ) ) ;
#56 = PRODUCT_DEFINITION_SHAPE ( 'NONE', 'NONE',  #18 ) ;
#57 = EDGE_LOOP ( 'NONE', ( #85, #58, #126, #40 ) ) ;
#58 = ORIENTED_EDGE ( 'NONE', *, *, #21, .T. ) ;
#59 = PRODUCT ( '301DOR250-S1', '301DOR250-S1', '', ( #35 ) ) ;
#60 =( GEOMETRIC_REPRESENTATION_CONTEXT ( 3 ) GLOBAL_UNCERTAINTY_ASSIGNED_CONTEXT ( ( #150 ) ) GLOBAL_UNIT_ASSIGNED_CONTEXT ( ( #153, #102, #89 ) ) REPRESENTATION_CONTEXT ( 'NONE', 'WORKASPACE' ) );
#61 = SURFACE_STYLE_USAGE ( .BOTH. , #158 ) ;
#62 = AXIS2_PLACEMENT_3D ( 'NONE', #155, #29, #6 ) ;
#63 = TOROIDAL_SURFACE ( 'NONE', #17, 129.1649999999999900, 2.665000000000004000 ) ;
#64 = ORIENTED_EDGE ( 'NONE', *, *, #103, .F. ) ;
#65 = COLOUR_RGB ( '',0.6980392156862744700, 0.6980392156862744700, 0.6980392156862744700 ) ;
#66 = DIRECTION ( 'NONE',  ( -1.000000000000000000, 0.0000000000000000000, 0.0000000000000000000 ) ) ;
#67 = VERTEX_POINT ( 'NONE', #76 ) ;
#68 = AXIS2_PLACEMENT_3D ( 'NONE', #43, #141, #66 ) ;
#69 = VERTEX_POINT ( 'NONE', #77 ) ;
#70 = MECHANICAL_DESIGN_GEOMETRIC_PRESENTATION_REPRESENTATION (  '', ( #111 ), #60 ) ;
#71 = PRESENTATION_STYLE_ASSIGNMENT (( #61 ) ) ;
#72 = PRESENTATION_STYLE_ASSIGNMENT (( #120 ) ) ;
#73 = AXIS2_PLACEMENT_3D ( 'NONE', #90, #3, #108 ) ;
#74 = UNCERTAINTY_MEASURE_WITH_UNIT (LENGTH_MEASURE( 1.000000000000000100E-005 ), #19, 'distance_accuracy_value', 'NONE');
#75 = DIRECTION ( 'NONE',  ( -1.000000000000000000, 0.0000000000000000000, 0.0000000000000000000 ) ) ;
#76 = CARTESIAN_POINT ( 'NONE',  ( -131.8300000000000100, 0.0000000000000000000, 0.0000000000000000000 ) ) ;
#77 = CARTESIAN_POINT ( 'NONE',  ( 126.5000000000000000, 1.549178200921401800E-014, 0.0000000000000000000 ) ) ;
#78 = ORIENTED_EDGE ( 'NONE', *, *, #33, .F. ) ;
#79 = ORIENTED_EDGE ( 'NONE', *, *, #21, .F. ) ;
#80 = APPLICATION_CONTEXT ( 'automotive_design' ) ;
#81 =( LENGTH_UNIT ( ) NAMED_UNIT ( * ) SI_UNIT ( .MILLI., .METRE. ) );
#82 = EDGE_LOOP ( 'NONE', ( #99, #110, #52, #146 ) ) ;
#83 = ORIENTED_EDGE ( 'NONE', *, *, #103, .T. ) ;
#84 = SURFACE_STYLE_FILL_AREA ( #20 ) ;
#85 = ORIENTED_EDGE ( 'NONE', *, *, #116, .F. ) ;
#86 = VERTEX_POINT ( 'NONE', #34 ) ;
#87 = DIRECTION ( 'NONE',  ( -1.000000000000000000, 0.0000000000000000000, 0.0000000000000000000 ) ) ;
#88 = CARTESIAN_POINT ( 'NONE',  ( 0.0000000000000000000, 0.0000000000000000000, 0.0000000000000000000 ) ) ;
#89 =( NAMED_UNIT ( * ) SI_UNIT ( $, .STERADIAN. ) SOLID_ANGLE_UNIT ( ) );
#90 = CARTESIAN_POINT ( 'NONE',  ( 0.0000000000000000000, 0.0000000000000000000, 0.0000000000000000000 ) ) ;
#91 = AXIS2_PLACEMENT_3D ( 'NONE', #88, #112, #87 ) ;
#92 = DIRECTION ( 'NONE',  ( 1.000000000000000000, 0.0000000000000000000, 0.0000000000000000000 ) ) ;
#93 = DIRECTION ( 'NONE',  ( -1.000000000000000000, -1.224646799147357400E-016, 0.0000000000000000000 ) ) ;
#94 = FILL_AREA_STYLE ('',( #38 ) ) ;
#95 = FACE_OUTER_BOUND ( 'NONE', #1, .T. ) ;
#96 =( NAMED_UNIT ( * ) SI_UNIT ( $, .STERADIAN. ) SOLID_ANGLE_UNIT ( ) );
#97 = PRESENTATION_LAYER_ASSIGNMENT (  '', '', ( #111 ) ) ;
#98 = DIRECTION ( 'NONE',  ( -1.000000000000000000, 0.0000000000000000000, 0.0000000000000000000 ) ) ;
#99 = ORIENTED_EDGE ( 'NONE', *, *, #151, .F. ) ;
#100 = EDGE_CURVE ( 'NONE', #67, #86, #32, .T. ) ;
#101 = DIRECTION ( 'NONE',  ( -1.000000000000000000, 0.0000000000000000000, 0.0000000000000000000 ) ) ;
#102 =( NAMED_UNIT ( * ) PLANE_ANGLE_UNIT ( ) SI_UNIT ( $, .RADIAN. ) );
#103 = EDGE_CURVE ( 'NONE', #69, #86, #50, .T. ) ;
#104 = CARTESIAN_POINT ( 'NONE',  ( 0.0000000000000000000, 0.0000000000000000000, 0.0000000000000000000 ) ) ;
#105 = MANIFOLD_SOLID_BREP ( 'Rotation1', #48 ) ;
#106 = APPLICATION_PROTOCOL_DEFINITION ( 'draft international standard', 'automotive_design', 1998, #80 ) ;
#107 = AXIS2_PLACEMENT_3D ( 'NONE', #118, #37, #46 ) ;
#108 = DIRECTION ( 'NONE',  ( -1.000000000000000000, 0.0000000000000000000, 0.0000000000000000000 ) ) ;
#109 = CIRCLE ( 'NONE', #73, 131.8300000000000100 ) ;
#110 = ORIENTED_EDGE ( 'NONE', *, *, #100, .T. ) ;
#111 = STYLED_ITEM ( 'NONE', ( #72 ), #9 ) ;
#112 = DIRECTION ( 'NONE',  ( -0.0000000000000000000, -0.0000000000000000000, -1.000000000000000000 ) ) ;
#113 = DIRECTION ( 'NONE',  ( -0.0000000000000000000, -0.0000000000000000000, -1.000000000000000000 ) ) ;
#114 = DIRECTION ( 'NONE',  ( 0.0000000000000000000, 0.0000000000000000000, -1.000000000000000000 ) ) ;
#115 = TOROIDAL_SURFACE ( 'NONE', #68, 129.1649999999999900, 2.665000000000004000 ) ;
#116 = EDGE_CURVE ( 'NONE', #86, #69, #2, .T. ) ;
#117 = PRESENTATION_LAYER_ASSIGNMENT (  '', '', ( #24 ) ) ;
#118 = CARTESIAN_POINT ( 'NONE',  ( -129.1649999999999900, 0.0000000000000000000, 0.0000000000000000000 ) ) ;
#119 = SHAPE_DEFINITION_REPRESENTATION ( #56, #9 ) ;
#120 = SURFACE_STYLE_USAGE ( .BOTH. , #13 ) ;
#121 = CARTESIAN_POINT ( 'NONE',  ( 129.1649999999999900, 1.581815038118678800E-014, 0.0000000000000000000 ) ) ;
#122 = CARTESIAN_POINT ( 'NONE',  ( 0.0000000000000000000, 0.0000000000000000000, 3.263683719727701500E-016 ) ) ;
#123 = COLOUR_RGB ( '',0.6980392156862744700, 0.6980392156862744700, 0.6980392156862744700 ) ;
#124 = FACE_OUTER_BOUND ( 'NONE', #82, .T. ) ;
#125 = AXIS2_PLACEMENT_3D ( 'NONE', #11, #30, #75 ) ;
#126 = ORIENTED_EDGE ( 'NONE', *, *, #151, .T. ) ;
#127 = TOROIDAL_SURFACE ( 'NONE', #91, 129.1649999999999900, 2.665000000000004000 ) ;
#128 = CIRCLE ( 'NONE', #157, 126.5000000000000000 ) ;
#129 =( NAMED_UNIT ( * ) PLANE_ANGLE_UNIT ( ) SI_UNIT ( $, .RADIAN. ) );
#130 = CIRCLE ( 'NONE', #107, 2.665000000000004000 ) ;
#131 = AXIS2_PLACEMENT_3D ( 'NONE', #154, #137, #114 ) ;
#132 =( GEOMETRIC_REPRESENTATION_CONTEXT ( 3 ) GLOBAL_UNCERTAINTY_ASSIGNED_CONTEXT ( ( #74 ) ) GLOBAL_UNIT_ASSIGNED_CONTEXT ( ( #19, #129, #96 ) ) REPRESENTATION_CONTEXT ( 'NONE', 'WORKASPACE' ) );
#133 =( NAMED_UNIT ( * ) SI_UNIT ( $, .STERADIAN. ) SOLID_ANGLE_UNIT ( ) );
#134 = EDGE_CURVE ( 'NONE', #69, #7, #128, .T. ) ;
#135 = CARTESIAN_POINT ( 'NONE',  ( 0.0000000000000000000, 0.0000000000000000000, 0.0000000000000000000 ) ) ;
#136 = DIRECTION ( 'NONE',  ( -1.000000000000000000, -1.224646799147357400E-016, 0.0000000000000000000 ) ) ;
#137 = DIRECTION ( 'NONE',  ( 0.0000000000000000000, -1.000000000000000000, 0.0000000000000000000 ) ) ;
#138 = ORIENTED_EDGE ( 'NONE', *, *, #134, .T. ) ;
#139 = ADVANCED_FACE ( 'NONE', ( #144 ), #63, .T. ) ;
#140 = AXIS2_PLACEMENT_3D ( 'NONE', #104, #8, #101 ) ;
#141 = DIRECTION ( 'NONE',  ( -0.0000000000000000000, -0.0000000000000000000, -1.000000000000000000 ) ) ;
#142 = FACE_OUTER_BOUND ( 'NONE', #57, .T. ) ;
#143 = MECHANICAL_DESIGN_GEOMETRIC_PRESENTATION_REPRESENTATION (  '', ( #24 ), #132 ) ;
#144 = FACE_OUTER_BOUND ( 'NONE', #42, .T. ) ;
#145 = DIRECTION ( 'NONE',  ( -1.224646799147353200E-016, 1.000000000000000000, 0.0000000000000000000 ) ) ;
#146 = ORIENTED_EDGE ( 'NONE', *, *, #44, .F. ) ;
#147 = ORIENTED_EDGE ( 'NONE', *, *, #44, .T. ) ;
#148 =( GEOMETRIC_REPRESENTATION_CONTEXT ( 3 ) GLOBAL_UNCERTAINTY_ASSIGNED_CONTEXT ( ( #39 ) ) GLOBAL_UNIT_ASSIGNED_CONTEXT ( ( #81, #16, #133 ) ) REPRESENTATION_CONTEXT ( 'NONE', 'WORKASPACE' ) );
#149 = PRODUCT_DEFINITION_CONTEXT ( 'detailed design', #5, 'design' ) ;
#150 = UNCERTAINTY_MEASURE_WITH_UNIT (LENGTH_MEASURE( 1.000000000000000100E-005 ), #153, 'distance_accuracy_value', 'NONE');
#151 = EDGE_CURVE ( 'NONE', #67, #7, #53, .T. ) ;
#152 = CARTESIAN_POINT ( 'NONE',  ( -126.5000000000000000, 0.0000000000000000000, 3.263683719727706000E-016 ) ) ;
#153 =( LENGTH_UNIT ( ) NAMED_UNIT ( * ) SI_UNIT ( .MILLI., .METRE. ) );
#154 = CARTESIAN_POINT ( 'NONE',  ( -129.1649999999999900, 0.0000000000000000000, 0.0000000000000000000 ) ) ;
#155 = CARTESIAN_POINT ( 'NONE',  ( 0.0000000000000000000, 0.0000000000000000000, 0.0000000000000000000 ) ) ;
#156 = CARTESIAN_POINT ( 'NONE',  ( 129.1649999999999900, 1.581815038118678800E-014, 0.0000000000000000000 ) ) ;
#157 = AXIS2_PLACEMENT_3D ( 'NONE', #122, #113, #98 ) ;
#158 = SURFACE_SIDE_STYLE ('',( #84 ) ) ;
ENDSEC;
END-ISO-10303-21;
