ISO-10303-21;
HEADER;
FILE_DESCRIPTION (( 'STEP AP214' ),
    '1' );
FILE_NAME ('490DFL350-S5.stp',
    '2017-10-11T11:18:32',
    ( '' ),
    ( '' ),
    'SwSTEP 2.0',
    'SolidWorks 2015',
    '' );
FILE_SCHEMA (( 'AUTOMOTIVE_DESIGN' ));
ENDSEC;

DATA;
#1 = ORIENTED_EDGE ( 'NONE', *, *, #156, .F. ) ;
#2 = EDGE_LOOP ( 'NONE', ( #96, #29, #162, #77 ) ) ;
#3 = CARTESIAN_POINT ( 'NONE',  ( 0.0000000000000000000, 0.0000000000000000000, -2.000000000000000000 ) ) ;
#4 = AXIS2_PLACEMENT_3D ( 'NONE', #66, #183, #100 ) ;
#5 = DIRECTION ( 'NONE',  ( 1.000000000000000000, 0.0000000000000000000, 0.0000000000000000000 ) ) ;
#6 = VERTEX_POINT ( 'NONE', #151 ) ;
#7 = CARTESIAN_POINT ( 'NONE',  ( 0.0000000000000000000, 0.0000000000000000000, -2.000000000000000000 ) ) ;
#8 =( NAMED_UNIT ( * ) PLANE_ANGLE_UNIT ( ) SI_UNIT ( $, .RADIAN. ) );
#9 = CARTESIAN_POINT ( 'NONE',  ( -178.2500000000000000, 2.182932919480156900E-014, 0.0000000000000000000 ) ) ;
#10 = ORIENTED_EDGE ( 'NONE', *, *, #171, .F. ) ;
#11 = PRODUCT_DEFINITION_FORMATION_WITH_SPECIFIED_SOURCE ( 'ANY', '', #179, .NOT_KNOWN. ) ;
#12 = PRODUCT_DEFINITION ( 'UNKNOWN', '', #11, #170 ) ;
#13 = ADVANCED_FACE ( 'NONE', ( #108 ), #145, .T. ) ;
#14 =( LENGTH_UNIT ( ) NAMED_UNIT ( * ) SI_UNIT ( .MILLI., .METRE. ) );
#15 =( NAMED_UNIT ( * ) SI_UNIT ( $, .STERADIAN. ) SOLID_ANGLE_UNIT ( ) );
#16 = ORIENTED_EDGE ( 'NONE', *, *, #184, .F. ) ;
#17 = FILL_AREA_STYLE ('',( #105 ) ) ;
#18 = DIRECTION ( 'NONE',  ( 1.000000000000000000, 0.0000000000000000000, 0.0000000000000000000 ) ) ;
#19 = PRESENTATION_LAYER_ASSIGNMENT (  '', '', ( #31 ) ) ;
#20 =( NAMED_UNIT ( * ) SI_UNIT ( $, .STERADIAN. ) SOLID_ANGLE_UNIT ( ) );
#21 = EDGE_LOOP ( 'NONE', ( #197, #149, #48, #51 ) ) ;
#22 = SURFACE_SIDE_STYLE ('',( #152 ) ) ;
#23 = CIRCLE ( 'NONE', #201, 178.2500000000000000 ) ;
#24 = DIRECTION ( 'NONE',  ( 0.0000000000000000000, 0.0000000000000000000, 1.000000000000000000 ) ) ;
#25 = EDGE_LOOP ( 'NONE', ( #60, #54 ) ) ;
#26 = AXIS2_PLACEMENT_3D ( 'NONE', #196, #146, #128 ) ;
#27 = DIRECTION ( 'NONE',  ( 0.0000000000000000000, 0.0000000000000000000, 1.000000000000000000 ) ) ;
#28 = PLANE ( 'NONE',  #111 ) ;
#29 = ORIENTED_EDGE ( 'NONE', *, *, #95, .F. ) ;
#30 = EDGE_LOOP ( 'NONE', ( #44, #62 ) ) ;
#31 = STYLED_ITEM ( 'NONE', ( #33 ), #67 ) ;
#32 = EDGE_CURVE ( 'NONE', #98, #46, #211, .T. ) ;
#33 = PRESENTATION_STYLE_ASSIGNMENT (( #172 ) ) ;
#34 = MANIFOLD_SOLID_BREP ( 'Aufsatz-Linear austragen1', #126 ) ;
#35 = APPLICATION_PROTOCOL_DEFINITION ( 'draft international standard', 'automotive_design', 1998, #180 ) ;
#36 =( NAMED_UNIT ( * ) PLANE_ANGLE_UNIT ( ) SI_UNIT ( $, .RADIAN. ) );
#37 = SURFACE_STYLE_USAGE ( .BOTH. , #22 ) ;
#38 = DIRECTION ( 'NONE',  ( 0.0000000000000000000, 0.0000000000000000000, 1.000000000000000000 ) ) ;
#39 = EDGE_LOOP ( 'NONE', ( #185, #42 ) ) ;
#40 = CARTESIAN_POINT ( 'NONE',  ( 0.0000000000000000000, 0.0000000000000000000, -2.000000000000000000 ) ) ;
#41 = DIRECTION ( 'NONE',  ( 0.0000000000000000000, 0.0000000000000000000, 1.000000000000000000 ) ) ;
#42 = ORIENTED_EDGE ( 'NONE', *, *, #43, .T. ) ;
#43 = EDGE_CURVE ( 'NONE', #63, #157, #125, .T. ) ;
#44 = ORIENTED_EDGE ( 'NONE', *, *, #112, .F. ) ;
#45 = VERTEX_POINT ( 'NONE', #186 ) ;
#46 = VERTEX_POINT ( 'NONE', #9 ) ;
#47 =( NAMED_UNIT ( * ) PLANE_ANGLE_UNIT ( ) SI_UNIT ( $, .RADIAN. ) );
#48 = ORIENTED_EDGE ( 'NONE', *, *, #184, .T. ) ;
#49 =( NAMED_UNIT ( * ) SI_UNIT ( $, .STERADIAN. ) SOLID_ANGLE_UNIT ( ) );
#50 = ADVANCED_FACE ( 'NONE', ( #90 ), #130, .F. ) ;
#51 = ORIENTED_EDGE ( 'NONE', *, *, #43, .F. ) ;
#52 = CARTESIAN_POINT ( 'NONE',  ( 188.3000000000000100, 0.0000000000000000000, 0.0000000000000000000 ) ) ;
#53 = DIRECTION ( 'NONE',  ( 0.0000000000000000000, 0.0000000000000000000, 1.000000000000000000 ) ) ;
#54 = ORIENTED_EDGE ( 'NONE', *, *, #119, .T. ) ;
#55 = DIRECTION ( 'NONE',  ( 1.000000000000000000, 0.0000000000000000000, 0.0000000000000000000 ) ) ;
#56 = DIRECTION ( 'NONE',  ( 0.0000000000000000000, 0.0000000000000000000, 1.000000000000000000 ) ) ;
#57 = DIRECTION ( 'NONE',  ( 0.0000000000000000000, 0.0000000000000000000, 1.000000000000000000 ) ) ;
#58 = CARTESIAN_POINT ( 'NONE',  ( -188.3000000000000100, 2.306009922794466500E-014, -2.000000000000000000 ) ) ;
#59 = EDGE_CURVE ( 'NONE', #45, #46, #127, .T. ) ;
#60 = ORIENTED_EDGE ( 'NONE', *, *, #95, .T. ) ;
#61 = VERTEX_POINT ( 'NONE', #58 ) ;
#62 = ORIENTED_EDGE ( 'NONE', *, *, #206, .F. ) ;
#63 = VERTEX_POINT ( 'NONE', #81 ) ;
#64 = VERTEX_POINT ( 'NONE', #88 ) ;
#65 = PRODUCT_CONTEXT ( 'NONE', #180, 'mechanical' ) ;
#66 = CARTESIAN_POINT ( 'NONE',  ( 0.0000000000000000000, 0.0000000000000000000, 0.0000000000000000000 ) ) ;
#67 = ADVANCED_BREP_SHAPE_REPRESENTATION ( '490DFL350-S5', ( #34, #85 ), #94 ) ;
#68 = APPLICATION_CONTEXT ( 'automotive_design' ) ;
#69 = AXIS2_PLACEMENT_3D ( 'NONE', #198, #200, #202 ) ;
#70 = AXIS2_PLACEMENT_3D ( 'NONE', #7, #57, #122 ) ;
#71 = CARTESIAN_POINT ( 'NONE',  ( 0.0000000000000000000, 0.0000000000000000000, -2.000000000000000000 ) ) ;
#72 = ORIENTED_EDGE ( 'NONE', *, *, #32, .T. ) ;
#73 = ADVANCED_FACE ( 'NONE', ( #82 ), #136, .T. ) ;
#74 = DIRECTION ( 'NONE',  ( 0.0000000000000000000, 0.0000000000000000000, 1.000000000000000000 ) ) ;
#75 = CARTESIAN_POINT ( 'NONE',  ( -178.2500000000000000, 2.182932919480156900E-014, -2.000000000000000000 ) ) ;
#76 =( GEOMETRIC_REPRESENTATION_CONTEXT ( 3 ) GLOBAL_UNCERTAINTY_ASSIGNED_CONTEXT ( ( #87 ) ) GLOBAL_UNIT_ASSIGNED_CONTEXT ( ( #89, #36, #15 ) ) REPRESENTATION_CONTEXT ( 'NONE', 'WORKASPACE' ) );
#77 = ORIENTED_EDGE ( 'NONE', *, *, #59, .T. ) ;
#78 = CIRCLE ( 'NONE', #70, 188.3000000000000100 ) ;
#79 = APPLICATION_PROTOCOL_DEFINITION ( 'draft international standard', 'automotive_design', 1998, #68 ) ;
#80 = CARTESIAN_POINT ( 'NONE',  ( 0.0000000000000000000, 0.0000000000000000000, 0.0000000000000000000 ) ) ;
#81 = CARTESIAN_POINT ( 'NONE',  ( -188.3000000000000100, 2.306009922794466500E-014, 0.0000000000000000000 ) ) ;
#82 = FACE_OUTER_BOUND ( 'NONE', #21, .T. ) ;
#83 = VECTOR ( 'NONE', #27, 1000.000000000000000 ) ;
#84 = ORIENTED_EDGE ( 'NONE', *, *, #59, .F. ) ;
#85 = AXIS2_PLACEMENT_3D ( 'NONE', #143, #53, #55 ) ;
#86 = DIRECTION ( 'NONE',  ( 1.000000000000000000, 0.0000000000000000000, -0.0000000000000000000 ) ) ;
#87 = UNCERTAINTY_MEASURE_WITH_UNIT (LENGTH_MEASURE( 1.000000000000000100E-005 ), #89, 'distance_accuracy_value', 'NONE');
#88 = CARTESIAN_POINT ( 'NONE',  ( 188.3000000000000100, 0.0000000000000000000, -2.000000000000000000 ) ) ;
#89 =( LENGTH_UNIT ( ) NAMED_UNIT ( * ) SI_UNIT ( .MILLI., .METRE. ) );
#90 = FACE_OUTER_BOUND ( 'NONE', #2, .T. ) ;
#91 = CARTESIAN_POINT ( 'NONE',  ( 0.0000000000000000000, 0.0000000000000000000, -2.000000000000000000 ) ) ;
#92 = CARTESIAN_POINT ( 'NONE',  ( 0.0000000000000000000, 0.0000000000000000000, 0.0000000000000000000 ) ) ;
#93 = FACE_BOUND ( 'NONE', #114, .T. ) ;
#94 =( GEOMETRIC_REPRESENTATION_CONTEXT ( 3 ) GLOBAL_UNCERTAINTY_ASSIGNED_CONTEXT ( ( #164 ) ) GLOBAL_UNIT_ASSIGNED_CONTEXT ( ( #14, #8, #20 ) ) REPRESENTATION_CONTEXT ( 'NONE', 'WORKASPACE' ) );
#95 = EDGE_CURVE ( 'NONE', #6, #98, #133, .T. ) ;
#96 = ORIENTED_EDGE ( 'NONE', *, *, #32, .F. ) ;
#97 = VECTOR ( 'NONE', #187, 1000.000000000000000 ) ;
#98 = VERTEX_POINT ( 'NONE', #192 ) ;
#99 = UNCERTAINTY_MEASURE_WITH_UNIT (LENGTH_MEASURE( 1.000000000000000100E-005 ), #163, 'distance_accuracy_value', 'NONE');
#100 = DIRECTION ( 'NONE',  ( 1.000000000000000000, 0.0000000000000000000, 0.0000000000000000000 ) ) ;
#101 = EDGE_LOOP ( 'NONE', ( #113, #72, #188, #10 ) ) ;
#102 = AXIS2_PLACEMENT_3D ( 'NONE', #104, #199, #165 ) ;
#103 = MECHANICAL_DESIGN_GEOMETRIC_PRESENTATION_REPRESENTATION (  '', ( #138 ), #76 ) ;
#104 = CARTESIAN_POINT ( 'NONE',  ( 0.0000000000000000000, 0.0000000000000000000, 0.0000000000000000000 ) ) ;
#105 = FILL_AREA_STYLE_COLOUR ( '', #175 ) ;
#106 = CARTESIAN_POINT ( 'NONE',  ( 0.0000000000000000000, 0.0000000000000000000, -2.000000000000000000 ) ) ;
#107 = ORIENTED_EDGE ( 'NONE', *, *, #210, .F. ) ;
#108 = FACE_OUTER_BOUND ( 'NONE', #191, .T. ) ;
#109 = AXIS2_PLACEMENT_3D ( 'NONE', #92, #132, #5 ) ;
#110 = PRESENTATION_STYLE_ASSIGNMENT (( #37 ) ) ;
#111 = AXIS2_PLACEMENT_3D ( 'NONE', #80, #115, #147 ) ;
#112 = EDGE_CURVE ( 'NONE', #64, #61, #78, .T. ) ;
#113 = ORIENTED_EDGE ( 'NONE', *, *, #119, .F. ) ;
#114 = EDGE_LOOP ( 'NONE', ( #84, #1 ) ) ;
#115 = DIRECTION ( 'NONE',  ( 0.0000000000000000000, 0.0000000000000000000, 1.000000000000000000 ) ) ;
#116 = DIRECTION ( 'NONE',  ( 1.000000000000000000, 0.0000000000000000000, 0.0000000000000000000 ) ) ;
#117 = ADVANCED_FACE ( 'NONE', ( #135 ), #178, .F. ) ;
#118 = CARTESIAN_POINT ( 'NONE',  ( 188.3000000000000100, 0.0000000000000000000, -2.000000000000000000 ) ) ;
#119 = EDGE_CURVE ( 'NONE', #98, #6, #23, .T. ) ;
#120 = DIRECTION ( 'NONE',  ( 1.000000000000000000, 0.0000000000000000000, 0.0000000000000000000 ) ) ;
#121 = DIRECTION ( 'NONE',  ( 0.0000000000000000000, 0.0000000000000000000, 1.000000000000000000 ) ) ;
#122 = DIRECTION ( 'NONE',  ( 1.000000000000000000, 0.0000000000000000000, 0.0000000000000000000 ) ) ;
#123 = PRESENTATION_LAYER_ASSIGNMENT (  '', '', ( #138 ) ) ;
#124 = PRODUCT_DEFINITION_SHAPE ( 'NONE', 'NONE',  #12 ) ;
#125 = CIRCLE ( 'NONE', #4, 188.3000000000000100 ) ;
#126 = CLOSED_SHELL ( 'NONE', ( #117, #13, #73, #182, #193, #50 ) ) ;
#127 = CIRCLE ( 'NONE', #109, 178.2500000000000000 ) ;
#128 = DIRECTION ( 'NONE',  ( 1.000000000000000000, 0.0000000000000000000, 0.0000000000000000000 ) ) ;
#129 = EDGE_CURVE ( 'NONE', #61, #63, #140, .T. ) ;
#130 = CYLINDRICAL_SURFACE ( 'NONE', #189, 178.2500000000000000 ) ;
#131 = CIRCLE ( 'NONE', #144, 188.3000000000000100 ) ;
#132 = DIRECTION ( 'NONE',  ( 0.0000000000000000000, 0.0000000000000000000, 1.000000000000000000 ) ) ;
#133 = CIRCLE ( 'NONE', #174, 178.2500000000000000 ) ;
#134 = DIRECTION ( 'NONE',  ( 1.000000000000000000, 0.0000000000000000000, 0.0000000000000000000 ) ) ;
#135 = FACE_OUTER_BOUND ( 'NONE', #101, .T. ) ;
#136 = CYLINDRICAL_SURFACE ( 'NONE', #26, 188.3000000000000100 ) ;
#137 = DIRECTION ( 'NONE',  ( 1.000000000000000000, 0.0000000000000000000, 0.0000000000000000000 ) ) ;
#138 = STYLED_ITEM ( 'NONE', ( #110 ), #34 ) ;
#139 = VECTOR ( 'NONE', #121, 1000.000000000000000 ) ;
#140 = LINE ( 'NONE', #169, #83 ) ;
#141 = FACE_OUTER_BOUND ( 'NONE', #30, .T. ) ;
#142 = LINE ( 'NONE', #177, #153 ) ;
#143 = CARTESIAN_POINT ( 'NONE',  ( 0.0000000000000000000, 0.0000000000000000000, 0.0000000000000000000 ) ) ;
#144 = AXIS2_PLACEMENT_3D ( 'NONE', #106, #155, #137 ) ;
#145 = CYLINDRICAL_SURFACE ( 'NONE', #205, 188.3000000000000100 ) ;
#146 = DIRECTION ( 'NONE',  ( 0.0000000000000000000, 0.0000000000000000000, 1.000000000000000000 ) ) ;
#147 = DIRECTION ( 'NONE',  ( 1.000000000000000000, 0.0000000000000000000, -0.0000000000000000000 ) ) ;
#148 = FACE_BOUND ( 'NONE', #25, .T. ) ;
#149 = ORIENTED_EDGE ( 'NONE', *, *, #206, .T. ) ;
#150 = SURFACE_SIDE_STYLE ('',( #168 ) ) ;
#151 = CARTESIAN_POINT ( 'NONE',  ( 178.2500000000000000, 0.0000000000000000000, -2.000000000000000000 ) ) ;
#152 = SURFACE_STYLE_FILL_AREA ( #17 ) ;
#153 = VECTOR ( 'NONE', #212, 1000.000000000000000 ) ;
#154 = AXIS2_PLACEMENT_3D ( 'NONE', #203, #194, #86 ) ;
#155 = DIRECTION ( 'NONE',  ( 0.0000000000000000000, 0.0000000000000000000, 1.000000000000000000 ) ) ;
#156 = EDGE_CURVE ( 'NONE', #46, #45, #207, .T. ) ;
#157 = VERTEX_POINT ( 'NONE', #52 ) ;
#158 = LINE ( 'NONE', #118, #139 ) ;
#159 = FACE_OUTER_BOUND ( 'NONE', #39, .T. ) ;
#160 = CARTESIAN_POINT ( 'NONE',  ( 0.0000000000000000000, 0.0000000000000000000, -2.000000000000000000 ) ) ;
#161 = SHAPE_DEFINITION_REPRESENTATION ( #124, #67 ) ;
#162 = ORIENTED_EDGE ( 'NONE', *, *, #171, .T. ) ;
#163 =( LENGTH_UNIT ( ) NAMED_UNIT ( * ) SI_UNIT ( .MILLI., .METRE. ) );
#164 = UNCERTAINTY_MEASURE_WITH_UNIT (LENGTH_MEASURE( 1.000000000000000100E-005 ), #14, 'distance_accuracy_value', 'NONE');
#165 = DIRECTION ( 'NONE',  ( 1.000000000000000000, 0.0000000000000000000, 0.0000000000000000000 ) ) ;
#166 = CIRCLE ( 'NONE', #102, 188.3000000000000100 ) ;
#167 = FILL_AREA_STYLE ('',( #181 ) ) ;
#168 = SURFACE_STYLE_FILL_AREA ( #167 ) ;
#169 = CARTESIAN_POINT ( 'NONE',  ( -188.3000000000000100, 2.306009922794466500E-014, -2.000000000000000000 ) ) ;
#170 = PRODUCT_DEFINITION_CONTEXT ( 'detailed design', #68, 'design' ) ;
#171 = EDGE_CURVE ( 'NONE', #6, #45, #142, .T. ) ;
#172 = SURFACE_STYLE_USAGE ( .BOTH. , #150 ) ;
#173 = ORIENTED_EDGE ( 'NONE', *, *, #112, .T. ) ;
#174 = AXIS2_PLACEMENT_3D ( 'NONE', #3, #38, #134 ) ;
#175 = COLOUR_RGB ( '',0.7254901960784313500, 0.4470588235294117300, 0.3686274509803921800 ) ;
#176 = AXIS2_PLACEMENT_3D ( 'NONE', #91, #24, #120 ) ;
#177 = CARTESIAN_POINT ( 'NONE',  ( 178.2500000000000000, 0.0000000000000000000, -2.000000000000000000 ) ) ;
#178 = CYLINDRICAL_SURFACE ( 'NONE', #176, 178.2500000000000000 ) ;
#179 = PRODUCT ( '490DFL350-S5', '490DFL350-S5', '', ( #65 ) ) ;
#180 = APPLICATION_CONTEXT ( 'automotive_design' ) ;
#181 = FILL_AREA_STYLE_COLOUR ( '', #190 ) ;
#182 = ADVANCED_FACE ( 'NONE', ( #148, #141 ), #213, .F. ) ;
#183 = DIRECTION ( 'NONE',  ( 0.0000000000000000000, 0.0000000000000000000, 1.000000000000000000 ) ) ;
#184 = EDGE_CURVE ( 'NONE', #64, #157, #158, .T. ) ;
#185 = ORIENTED_EDGE ( 'NONE', *, *, #210, .T. ) ;
#186 = CARTESIAN_POINT ( 'NONE',  ( 178.2500000000000000, 0.0000000000000000000, 0.0000000000000000000 ) ) ;
#187 = DIRECTION ( 'NONE',  ( 0.0000000000000000000, 0.0000000000000000000, 1.000000000000000000 ) ) ;
#188 = ORIENTED_EDGE ( 'NONE', *, *, #156, .T. ) ;
#189 = AXIS2_PLACEMENT_3D ( 'NONE', #71, #74, #214 ) ;
#190 = COLOUR_RGB ( '',0.7254901960784313500, 0.4470588235294117300, 0.3686274509803921800 ) ;
#191 = EDGE_LOOP ( 'NONE', ( #173, #204, #107, #16 ) ) ;
#192 = CARTESIAN_POINT ( 'NONE',  ( -178.2500000000000000, 2.182932919480156900E-014, -2.000000000000000000 ) ) ;
#193 = ADVANCED_FACE ( 'NONE', ( #93, #159 ), #28, .T. ) ;
#194 = DIRECTION ( 'NONE',  ( 0.0000000000000000000, 0.0000000000000000000, 1.000000000000000000 ) ) ;
#195 =( GEOMETRIC_REPRESENTATION_CONTEXT ( 3 ) GLOBAL_UNCERTAINTY_ASSIGNED_CONTEXT ( ( #99 ) ) GLOBAL_UNIT_ASSIGNED_CONTEXT ( ( #163, #47, #49 ) ) REPRESENTATION_CONTEXT ( 'NONE', 'WORKASPACE' ) );
#196 = CARTESIAN_POINT ( 'NONE',  ( 0.0000000000000000000, 0.0000000000000000000, -2.000000000000000000 ) ) ;
#197 = ORIENTED_EDGE ( 'NONE', *, *, #129, .F. ) ;
#198 = CARTESIAN_POINT ( 'NONE',  ( 0.0000000000000000000, 0.0000000000000000000, 0.0000000000000000000 ) ) ;
#199 = DIRECTION ( 'NONE',  ( 0.0000000000000000000, 0.0000000000000000000, 1.000000000000000000 ) ) ;
#200 = DIRECTION ( 'NONE',  ( 0.0000000000000000000, 0.0000000000000000000, 1.000000000000000000 ) ) ;
#201 = AXIS2_PLACEMENT_3D ( 'NONE', #40, #41, #116 ) ;
#202 = DIRECTION ( 'NONE',  ( 1.000000000000000000, 0.0000000000000000000, 0.0000000000000000000 ) ) ;
#203 = CARTESIAN_POINT ( 'NONE',  ( 0.0000000000000000000, 0.0000000000000000000, -2.000000000000000000 ) ) ;
#204 = ORIENTED_EDGE ( 'NONE', *, *, #129, .T. ) ;
#205 = AXIS2_PLACEMENT_3D ( 'NONE', #160, #56, #18 ) ;
#206 = EDGE_CURVE ( 'NONE', #61, #64, #131, .T. ) ;
#207 = CIRCLE ( 'NONE', #69, 178.2500000000000000 ) ;
#208 = PRODUCT_RELATED_PRODUCT_CATEGORY ( 'part', '', ( #179 ) ) ;
#209 = MECHANICAL_DESIGN_GEOMETRIC_PRESENTATION_REPRESENTATION (  '', ( #31 ), #195 ) ;
#210 = EDGE_CURVE ( 'NONE', #157, #63, #166, .T. ) ;
#211 = LINE ( 'NONE', #75, #97 ) ;
#212 = DIRECTION ( 'NONE',  ( 0.0000000000000000000, 0.0000000000000000000, 1.000000000000000000 ) ) ;
#213 = PLANE ( 'NONE',  #154 ) ;
#214 = DIRECTION ( 'NONE',  ( 1.000000000000000000, 0.0000000000000000000, 0.0000000000000000000 ) ) ;
ENDSEC;
END-ISO-10303-21;
