ISO-10303-21;
HEADER;
FILE_DESCRIPTION (( 'STEP AP214' ),
    '1' );
FILE_NAME ('302DOR400-S1.step',
    '2017-07-07T05:03:47',
    ( 'install' ),
    ( '' ),
    'SwSTEP 2.0',
    'SolidWorks 2015',
    '' );
FILE_SCHEMA (( 'AUTOMOTIVE_DESIGN' ));
ENDSEC;

DATA;
#1 = DIRECTION ( 'NONE',  ( -1.000000000000000000, 0.0000000000000000000, 0.0000000000000000000 ) ) ;
#2 = EDGE_CURVE ( 'NONE', #40, #105, #85, .T. ) ;
#3 = UNCERTAINTY_MEASURE_WITH_UNIT (LENGTH_MEASURE( 1.000000000000000100E-005 ), #91, 'distance_accuracy_value', 'NONE');
#4 = AXIS2_PLACEMENT_3D ( 'NONE', #108, #72, #148 ) ;
#5 = FACE_OUTER_BOUND ( 'NONE', #145, .T. ) ;
#6 = DIRECTION ( 'NONE',  ( -1.224646799147353200E-016, 1.000000000000000000, 0.0000000000000000000 ) ) ;
#7 = ADVANCED_FACE ( 'NONE', ( #119 ), #79, .T. ) ;
#8 = ADVANCED_FACE ( 'NONE', ( #35 ), #84, .T. ) ;
#9 = COLOUR_RGB ( '',0.3843137254901960500, 0.3843137254901960500, 0.3843137254901960500 ) ;
#10 = CIRCLE ( 'NONE', #63, 3.500000000000002200 ) ;
#11 = EDGE_CURVE ( 'NONE', #81, #40, #87, .T. ) ;
#12 = CIRCLE ( 'NONE', #17, 3.500000000000003100 ) ;
#13 =( NAMED_UNIT ( * ) PLANE_ANGLE_UNIT ( ) SI_UNIT ( $, .RADIAN. ) );
#14 = CARTESIAN_POINT ( 'NONE',  ( 202.5000000000000000, 2.479909768273390500E-014, 0.0000000000000000000 ) ) ;
#15 = EDGE_CURVE ( 'NONE', #81, #98, #154, .T. ) ;
#16 = DIRECTION ( 'NONE',  ( 0.0000000000000000000, -1.000000000000000000, 0.0000000000000000000 ) ) ;
#17 = AXIS2_PLACEMENT_3D ( 'NONE', #47, #55, #132 ) ;
#18 = DIRECTION ( 'NONE',  ( 1.000000000000000000, 0.0000000000000000000, 0.0000000000000000000 ) ) ;
#19 = COLOUR_RGB ( '',0.3843137254901960500, 0.3843137254901960500, 0.3843137254901960500 ) ;
#20 =( LENGTH_UNIT ( ) NAMED_UNIT ( * ) SI_UNIT ( .MILLI., .METRE. ) );
#21 = CIRCLE ( 'NONE', #116, 202.5000000000000000 ) ;
#22 = PRESENTATION_STYLE_ASSIGNMENT (( #141 ) ) ;
#23 = TOROIDAL_SURFACE ( 'NONE', #125, 206.0000000000000300, 3.500000000000002200 ) ;
#24 = AXIS2_PLACEMENT_3D ( 'NONE', #41, #61, #144 ) ;
#25 = CIRCLE ( 'NONE', #102, 202.5000000000000000 ) ;
#26 = MANIFOLD_SOLID_BREP ( 'Rotation1', #62 ) ;
#27 = PRODUCT_RELATED_PRODUCT_CATEGORY ( 'part', '', ( #151 ) ) ;
#28 =( NAMED_UNIT ( * ) PLANE_ANGLE_UNIT ( ) SI_UNIT ( $, .RADIAN. ) );
#29 = CARTESIAN_POINT ( 'NONE',  ( -206.0000000000000300, 0.0000000000000000000, 0.0000000000000000000 ) ) ;
#30 = PRODUCT_CONTEXT ( 'NONE', #42, 'mechanical' ) ;
#31 = ORIENTED_EDGE ( 'NONE', *, *, #11, .F. ) ;
#32 = PRODUCT_DEFINITION_FORMATION_WITH_SPECIFIED_SOURCE ( 'ANY', '', #151, .NOT_KNOWN. ) ;
#33 = AXIS2_PLACEMENT_3D ( 'NONE', #114, #127, #156 ) ;
#34 = ORIENTED_EDGE ( 'NONE', *, *, #11, .T. ) ;
#35 = FACE_OUTER_BOUND ( 'NONE', #134, .T. ) ;
#36 = TOROIDAL_SURFACE ( 'NONE', #71, 206.0000000000000300, 3.500000000000002200 ) ;
#37 = FACE_OUTER_BOUND ( 'NONE', #122, .T. ) ;
#38 = EDGE_CURVE ( 'NONE', #98, #105, #25, .T. ) ;
#39 = ADVANCED_FACE ( 'NONE', ( #5 ), #36, .T. ) ;
#40 = VERTEX_POINT ( 'NONE', #88 ) ;
#41 = CARTESIAN_POINT ( 'NONE',  ( 0.0000000000000000000, 0.0000000000000000000, 0.0000000000000000000 ) ) ;
#42 = APPLICATION_CONTEXT ( 'automotive_design' ) ;
#43 = APPLICATION_PROTOCOL_DEFINITION ( 'draft international standard', 'automotive_design', 1998, #117 ) ;
#44 = EDGE_CURVE ( 'NONE', #98, #81, #12, .T. ) ;
#45 = AXIS2_PLACEMENT_3D ( 'NONE', #66, #6, #124 ) ;
#46 =( GEOMETRIC_REPRESENTATION_CONTEXT ( 3 ) GLOBAL_UNCERTAINTY_ASSIGNED_CONTEXT ( ( #3 ) ) GLOBAL_UNIT_ASSIGNED_CONTEXT ( ( #91, #28, #136 ) ) REPRESENTATION_CONTEXT ( 'NONE', 'WORKASPACE' ) );
#47 = CARTESIAN_POINT ( 'NONE',  ( 206.0000000000000300, 2.522772406243547800E-014, 0.0000000000000000000 ) ) ;
#48 = DIRECTION ( 'NONE',  ( 0.0000000000000000000, -1.000000000000000000, 0.0000000000000000000 ) ) ;
#49 = MECHANICAL_DESIGN_GEOMETRIC_PRESENTATION_REPRESENTATION (  '', ( #78 ), #75 ) ;
#50 = PRESENTATION_LAYER_ASSIGNMENT (  '', '', ( #78 ) ) ;
#51 = SURFACE_SIDE_STYLE ('',( #56 ) ) ;
#52 = PRESENTATION_STYLE_ASSIGNMENT (( #143 ) ) ;
#53 = CARTESIAN_POINT ( 'NONE',  ( 209.5000000000000300, 2.565635044213705100E-014, 0.0000000000000000000 ) ) ;
#54 = CARTESIAN_POINT ( 'NONE',  ( 0.0000000000000000000, 0.0000000000000000000, 0.0000000000000000000 ) ) ;
#55 = DIRECTION ( 'NONE',  ( -1.224646799147353200E-016, 1.000000000000000000, 0.0000000000000000000 ) ) ;
#56 = SURFACE_STYLE_FILL_AREA ( #128 ) ;
#57 = AXIS2_PLACEMENT_3D ( 'NONE', #54, #92, #18 ) ;
#58 = ORIENTED_EDGE ( 'NONE', *, *, #2, .F. ) ;
#59 = AXIS2_PLACEMENT_3D ( 'NONE', #140, #155, #112 ) ;
#60 = CIRCLE ( 'NONE', #4, 209.5000000000000300 ) ;
#61 = DIRECTION ( 'NONE',  ( -0.0000000000000000000, -0.0000000000000000000, -1.000000000000000000 ) ) ;
#62 = CLOSED_SHELL ( 'NONE', ( #8, #7, #39, #146 ) ) ;
#63 = AXIS2_PLACEMENT_3D ( 'NONE', #150, #48, #83 ) ;
#64 = FILL_AREA_STYLE_COLOUR ( '', #19 ) ;
#65 =( LENGTH_UNIT ( ) NAMED_UNIT ( * ) SI_UNIT ( .MILLI., .METRE. ) );
#66 = CARTESIAN_POINT ( 'NONE',  ( 206.0000000000000300, 2.522772406243547800E-014, 0.0000000000000000000 ) ) ;
#67 = ORIENTED_EDGE ( 'NONE', *, *, #44, .T. ) ;
#68 = DIRECTION ( 'NONE',  ( -0.0000000000000000000, -0.0000000000000000000, -1.000000000000000000 ) ) ;
#69 = CARTESIAN_POINT ( 'NONE',  ( 0.0000000000000000000, 0.0000000000000000000, 4.286263797015738600E-016 ) ) ;
#70 = ORIENTED_EDGE ( 'NONE', *, *, #149, .F. ) ;
#71 = AXIS2_PLACEMENT_3D ( 'NONE', #76, #104, #142 ) ;
#72 = DIRECTION ( 'NONE',  ( -0.0000000000000000000, -0.0000000000000000000, -1.000000000000000000 ) ) ;
#73 = UNCERTAINTY_MEASURE_WITH_UNIT (LENGTH_MEASURE( 1.000000000000000100E-005 ), #65, 'distance_accuracy_value', 'NONE');
#74 = ORIENTED_EDGE ( 'NONE', *, *, #15, .F. ) ;
#75 =( GEOMETRIC_REPRESENTATION_CONTEXT ( 3 ) GLOBAL_UNCERTAINTY_ASSIGNED_CONTEXT ( ( #73 ) ) GLOBAL_UNIT_ASSIGNED_CONTEXT ( ( #65, #157, #80 ) ) REPRESENTATION_CONTEXT ( 'NONE', 'WORKASPACE' ) );
#76 = CARTESIAN_POINT ( 'NONE',  ( 0.0000000000000000000, 0.0000000000000000000, 0.0000000000000000000 ) ) ;
#77 = CARTESIAN_POINT ( 'NONE',  ( 0.0000000000000000000, 0.0000000000000000000, 4.286263797015738600E-016 ) ) ;
#78 = STYLED_ITEM ( 'NONE', ( #52 ), #101 ) ;
#79 = TOROIDAL_SURFACE ( 'NONE', #24, 206.0000000000000300, 3.500000000000002200 ) ;
#80 =( NAMED_UNIT ( * ) SI_UNIT ( $, .STERADIAN. ) SOLID_ANGLE_UNIT ( ) );
#81 = VERTEX_POINT ( 'NONE', #53 ) ;
#82 = SHAPE_DEFINITION_REPRESENTATION ( #96, #101 ) ;
#83 = DIRECTION ( 'NONE',  ( 0.0000000000000000000, 0.0000000000000000000, -1.000000000000000000 ) ) ;
#84 = TOROIDAL_SURFACE ( 'NONE', #33, 206.0000000000000300, 3.500000000000002200 ) ;
#85 = CIRCLE ( 'NONE', #135, 3.500000000000002200 ) ;
#86 = PRESENTATION_LAYER_ASSIGNMENT (  '', '', ( #130 ) ) ;
#87 = CIRCLE ( 'NONE', #59, 209.5000000000000300 ) ;
#88 = CARTESIAN_POINT ( 'NONE',  ( -209.5000000000000300, 0.0000000000000000000, 0.0000000000000000000 ) ) ;
#89 = MECHANICAL_DESIGN_GEOMETRIC_PRESENTATION_REPRESENTATION (  '', ( #130 ), #46 ) ;
#90 = ORIENTED_EDGE ( 'NONE', *, *, #44, .F. ) ;
#91 =( LENGTH_UNIT ( ) NAMED_UNIT ( * ) SI_UNIT ( .MILLI., .METRE. ) );
#92 = DIRECTION ( 'NONE',  ( 0.0000000000000000000, 0.0000000000000000000, 1.000000000000000000 ) ) ;
#93 = DIRECTION ( 'NONE',  ( 0.0000000000000000000, 0.0000000000000000000, -1.000000000000000000 ) ) ;
#94 = DIRECTION ( 'NONE',  ( -1.000000000000000000, 0.0000000000000000000, 0.0000000000000000000 ) ) ;
#95 = ORIENTED_EDGE ( 'NONE', *, *, #38, .F. ) ;
#96 = PRODUCT_DEFINITION_SHAPE ( 'NONE', 'NONE',  #111 ) ;
#97 = DIRECTION ( 'NONE',  ( -1.000000000000000000, 0.0000000000000000000, 0.0000000000000000000 ) ) ;
#98 = VERTEX_POINT ( 'NONE', #14 ) ;
#99 =( NAMED_UNIT ( * ) SI_UNIT ( $, .STERADIAN. ) SOLID_ANGLE_UNIT ( ) );
#100 = EDGE_LOOP ( 'NONE', ( #58, #126, #133, #153 ) ) ;
#101 = ADVANCED_BREP_SHAPE_REPRESENTATION ( '302DOR400-S1', ( #26, #57 ), #121 ) ;
#102 = AXIS2_PLACEMENT_3D ( 'NONE', #69, #68, #94 ) ;
#103 = APPLICATION_PROTOCOL_DEFINITION ( 'draft international standard', 'automotive_design', 1998, #42 ) ;
#104 = DIRECTION ( 'NONE',  ( -0.0000000000000000000, -0.0000000000000000000, -1.000000000000000000 ) ) ;
#105 = VERTEX_POINT ( 'NONE', #118 ) ;
#106 = DIRECTION ( 'NONE',  ( -0.0000000000000000000, -0.0000000000000000000, -1.000000000000000000 ) ) ;
#107 = DIRECTION ( 'NONE',  ( -0.0000000000000000000, -0.0000000000000000000, -1.000000000000000000 ) ) ;
#108 = CARTESIAN_POINT ( 'NONE',  ( 0.0000000000000000000, 0.0000000000000000000, 0.0000000000000000000 ) ) ;
#109 = SURFACE_STYLE_FILL_AREA ( #110 ) ;
#110 = FILL_AREA_STYLE ('',( #64 ) ) ;
#111 = PRODUCT_DEFINITION ( 'UNKNOWN', '', #32, #138 ) ;
#112 = DIRECTION ( 'NONE',  ( -1.000000000000000000, 0.0000000000000000000, 0.0000000000000000000 ) ) ;
#113 = ORIENTED_EDGE ( 'NONE', *, *, #2, .T. ) ;
#114 = CARTESIAN_POINT ( 'NONE',  ( 0.0000000000000000000, 0.0000000000000000000, 0.0000000000000000000 ) ) ;
#115 = FILL_AREA_STYLE_COLOUR ( '', #9 ) ;
#116 = AXIS2_PLACEMENT_3D ( 'NONE', #77, #107, #97 ) ;
#117 = APPLICATION_CONTEXT ( 'automotive_design' ) ;
#118 = CARTESIAN_POINT ( 'NONE',  ( -202.5000000000000000, 0.0000000000000000000, 4.286263797015737600E-016 ) ) ;
#119 = FACE_OUTER_BOUND ( 'NONE', #100, .T. ) ;
#120 = ORIENTED_EDGE ( 'NONE', *, *, #38, .T. ) ;
#121 =( GEOMETRIC_REPRESENTATION_CONTEXT ( 3 ) GLOBAL_UNCERTAINTY_ASSIGNED_CONTEXT ( ( #129 ) ) GLOBAL_UNIT_ASSIGNED_CONTEXT ( ( #20, #13, #99 ) ) REPRESENTATION_CONTEXT ( 'NONE', 'WORKASPACE' ) );
#122 = EDGE_LOOP ( 'NONE', ( #31, #90, #120, #147 ) ) ;
#123 = EDGE_CURVE ( 'NONE', #105, #40, #10, .T. ) ;
#124 = DIRECTION ( 'NONE',  ( -1.000000000000000000, -1.224646799147349500E-016, 0.0000000000000000000 ) ) ;
#125 = AXIS2_PLACEMENT_3D ( 'NONE', #131, #106, #1 ) ;
#126 = ORIENTED_EDGE ( 'NONE', *, *, #149, .T. ) ;
#127 = DIRECTION ( 'NONE',  ( -0.0000000000000000000, -0.0000000000000000000, -1.000000000000000000 ) ) ;
#128 = FILL_AREA_STYLE ('',( #115 ) ) ;
#129 = UNCERTAINTY_MEASURE_WITH_UNIT (LENGTH_MEASURE( 1.000000000000000100E-005 ), #20, 'distance_accuracy_value', 'NONE');
#130 = STYLED_ITEM ( 'NONE', ( #22 ), #26 ) ;
#131 = CARTESIAN_POINT ( 'NONE',  ( 0.0000000000000000000, 0.0000000000000000000, 0.0000000000000000000 ) ) ;
#132 = DIRECTION ( 'NONE',  ( -1.000000000000000000, -1.224646799147349500E-016, 0.0000000000000000000 ) ) ;
#133 = ORIENTED_EDGE ( 'NONE', *, *, #15, .T. ) ;
#134 = EDGE_LOOP ( 'NONE', ( #74, #34, #113, #95 ) ) ;
#135 = AXIS2_PLACEMENT_3D ( 'NONE', #29, #16, #93 ) ;
#136 =( NAMED_UNIT ( * ) SI_UNIT ( $, .STERADIAN. ) SOLID_ANGLE_UNIT ( ) );
#137 = ORIENTED_EDGE ( 'NONE', *, *, #123, .F. ) ;
#138 = PRODUCT_DEFINITION_CONTEXT ( 'detailed design', #117, 'design' ) ;
#139 = SURFACE_SIDE_STYLE ('',( #109 ) ) ;
#140 = CARTESIAN_POINT ( 'NONE',  ( 0.0000000000000000000, 0.0000000000000000000, 0.0000000000000000000 ) ) ;
#141 = SURFACE_STYLE_USAGE ( .BOTH. , #139 ) ;
#142 = DIRECTION ( 'NONE',  ( -1.000000000000000000, 0.0000000000000000000, 0.0000000000000000000 ) ) ;
#143 = SURFACE_STYLE_USAGE ( .BOTH. , #51 ) ;
#144 = DIRECTION ( 'NONE',  ( -1.000000000000000000, 0.0000000000000000000, 0.0000000000000000000 ) ) ;
#145 = EDGE_LOOP ( 'NONE', ( #70, #137, #158, #67 ) ) ;
#146 = ADVANCED_FACE ( 'NONE', ( #37 ), #23, .T. ) ;
#147 = ORIENTED_EDGE ( 'NONE', *, *, #123, .T. ) ;
#148 = DIRECTION ( 'NONE',  ( -1.000000000000000000, 0.0000000000000000000, 0.0000000000000000000 ) ) ;
#149 = EDGE_CURVE ( 'NONE', #40, #81, #60, .T. ) ;
#150 = CARTESIAN_POINT ( 'NONE',  ( -206.0000000000000300, 0.0000000000000000000, 0.0000000000000000000 ) ) ;
#151 = PRODUCT ( '302DOR400-S1', '302DOR400-S1', '', ( #30 ) ) ;
#152 = EDGE_CURVE ( 'NONE', #105, #98, #21, .T. ) ;
#153 = ORIENTED_EDGE ( 'NONE', *, *, #152, .F. ) ;
#154 = CIRCLE ( 'NONE', #45, 3.500000000000003100 ) ;
#155 = DIRECTION ( 'NONE',  ( -0.0000000000000000000, -0.0000000000000000000, -1.000000000000000000 ) ) ;
#156 = DIRECTION ( 'NONE',  ( -1.000000000000000000, 0.0000000000000000000, 0.0000000000000000000 ) ) ;
#157 =( NAMED_UNIT ( * ) PLANE_ANGLE_UNIT ( ) SI_UNIT ( $, .RADIAN. ) );
#158 = ORIENTED_EDGE ( 'NONE', *, *, #152, .T. ) ;
ENDSEC;
END-ISO-10303-21;
