ISO-10303-21;
/* Copyright TRINOS Vakuum-Systeme GmbH */
HEADER;
FILE_DESCRIPTION (( 'STEP AP214' ),
    '1' );
FILE_NAME ('602 DOR 450-S1.STEP',
    '2012-10-04T07:56:12',
    ( '' ),
    ( '' ),
    'SwSTEP 2.0',
    'SolidWorks 2010',
    '' );
FILE_SCHEMA (( 'AUTOMOTIVE_DESIGN' ));
ENDSEC;

DATA;
#1 =( NAMED_UNIT ( * ) PLANE_ANGLE_UNIT ( ) SI_UNIT ( $, .RADIAN. ) );
#2 =( NAMED_UNIT ( * ) SI_UNIT ( $, .STERADIAN. ) SOLID_ANGLE_UNIT ( ) );
#3 = CARTESIAN_POINT ( 'NONE',  ( 0.0000000000000000000, 0.0000000000000000000, 0.0000000000000000000 ) ) ;
#4 = DIRECTION ( 'NONE',  ( 0.0000000000000000000, 0.0000000000000000000, 1.000000000000000000 ) ) ;
#5 = DIRECTION ( 'NONE',  ( 1.000000000000000000, 0.0000000000000000000, 0.0000000000000000000 ) ) ;
#6 = APPLICATION_CONTEXT ( 'automotive_design' ) ;
#7 = APPLICATION_PROTOCOL_DEFINITION ( 'draft international standard', 'automotive_design', 1998, #6 ) ;
#8 = PRODUCT_CONTEXT ( 'NONE', #6, 'mechanical' ) ;
#9 = APPLICATION_CONTEXT ( 'automotive_design' ) ;
#10 = APPLICATION_PROTOCOL_DEFINITION ( 'draft international standard', 'automotive_design', 1998, #9 ) ;
#11 = SURFACE_STYLE_USAGE ( .BOTH. , #12 ) ;
#12 = SURFACE_SIDE_STYLE ('',( #86 ) ) ;
#13 =( LENGTH_UNIT ( ) NAMED_UNIT ( * ) SI_UNIT ( .MILLI., .METRE. ) );
#14 = VERTEX_POINT ( 'NONE', #36 ) ;
#15 = DIRECTION ( 'NONE',  ( 0.0000000000000000000, 0.0000000000000000000, 1.000000000000000000 ) ) ;
#16 = DIRECTION ( 'NONE',  ( -1.000000000000000000, -0.0000000000000000000, -0.0000000000000000000 ) ) ;
#17 = DIRECTION ( 'NONE',  ( 0.0000000000000000000, 0.0000000000000000000, 1.000000000000000000 ) ) ;
#18 = FILL_AREA_STYLE ('',( #63 ) ) ;
#19 = DIRECTION ( 'NONE',  ( -0.0000000000000000000, 1.000000000000000000, 1.224646799147353200E-016 ) ) ;
#20 =( NAMED_UNIT ( * ) PLANE_ANGLE_UNIT ( ) SI_UNIT ( $, .RADIAN. ) );
#21 = CARTESIAN_POINT ( 'NONE',  ( 0.0000000000000000000, 0.0000000000000000000, 246.7499999999999700 ) ) ;
#22 = VERTEX_POINT ( 'NONE', #61 ) ;
#23 = CARTESIAN_POINT ( 'NONE',  ( 1.530808498934193000E-016, 0.0000000000000000000, 0.0000000000000000000 ) ) ;
#24 = DIRECTION ( 'NONE',  ( 0.0000000000000000000, -1.224646799147374200E-016, 1.000000000000000000 ) ) ;
#25 = CARTESIAN_POINT ( 'NONE',  ( 0.0000000000000000000, 0.0000000000000000000, 245.4999999999999700 ) ) ;
#26 = DIRECTION ( 'NONE',  ( -1.000000000000000000, -0.0000000000000000000, -0.0000000000000000000 ) ) ;
#27 = DIRECTION ( 'NONE',  ( 0.0000000000000000000, 0.0000000000000000000, -1.000000000000000000 ) ) ;
#28 =( LENGTH_UNIT ( ) NAMED_UNIT ( * ) SI_UNIT ( .MILLI., .METRE. ) );
#29 = CARTESIAN_POINT ( 'NONE',  ( 0.0000000000000000000, 0.0000000000000000000, 0.0000000000000000000 ) ) ;
#30 = CARTESIAN_POINT ( 'NONE',  ( 0.0000000000000000000, 0.0000000000000000000, 0.0000000000000000000 ) ) ;
#31 = CARTESIAN_POINT ( 'NONE',  ( 0.0000000000000000000, 0.0000000000000000000, 0.0000000000000000000 ) ) ;
#32 =( NAMED_UNIT ( * ) SI_UNIT ( $, .STERADIAN. ) SOLID_ANGLE_UNIT ( ) );
#33 = CARTESIAN_POINT ( 'NONE',  ( 0.0000000000000000000, 3.037124061885435500E-014, -247.9999999999999700 ) ) ;
#34 = CARTESIAN_POINT ( 'NONE',  ( 0.0000000000000000000, 3.021815976896093600E-014, -246.7499999999999700 ) ) ;
#35 = DIRECTION ( 'NONE',  ( 0.0000000000000000000, 0.0000000000000000000, 1.000000000000000000 ) ) ;
#36 = CARTESIAN_POINT ( 'NONE',  ( 0.0000000000000000000, 0.0000000000000000000, 247.9999999999999700 ) ) ;
#37 = DIRECTION ( 'NONE',  ( 0.0000000000000000000, 0.0000000000000000000, 1.000000000000000000 ) ) ;
#38 = DIRECTION ( 'NONE',  ( 0.0000000000000000000, 0.0000000000000000000, 1.000000000000000000 ) ) ;
#39 = CARTESIAN_POINT ( 'NONE',  ( 0.0000000000000000000, 0.0000000000000000000, 246.7499999999999700 ) ) ;
#40 = CARTESIAN_POINT ( 'NONE',  ( 0.0000000000000000000, 0.0000000000000000000, 0.0000000000000000000 ) ) ;
#41 = CARTESIAN_POINT ( 'NONE',  ( 0.0000000000000000000, 3.021815976896093600E-014, -246.7499999999999700 ) ) ;
#42 =( NAMED_UNIT ( * ) SI_UNIT ( $, .STERADIAN. ) SOLID_ANGLE_UNIT ( ) );
#43 = DIRECTION ( 'NONE',  ( 0.0000000000000000000, 0.0000000000000000000, 1.000000000000000000 ) ) ;
#44 = DIRECTION ( 'NONE',  ( -1.000000000000000000, -0.0000000000000000000, -0.0000000000000000000 ) ) ;
#45 = DIRECTION ( 'NONE',  ( -0.0000000000000000000, 1.000000000000000000, 1.224646799147353200E-016 ) ) ;
#46 = DIRECTION ( 'NONE',  ( -1.000000000000000000, -0.0000000000000000000, -0.0000000000000000000 ) ) ;
#47 = DIRECTION ( 'NONE',  ( -1.000000000000000000, -0.0000000000000000000, -0.0000000000000000000 ) ) ;
#48 = DIRECTION ( 'NONE',  ( -1.000000000000000000, -0.0000000000000000000, -0.0000000000000000000 ) ) ;
#49 = DIRECTION ( 'NONE',  ( 0.0000000000000000000, 0.0000000000000000000, 1.000000000000000000 ) ) ;
#50 = VERTEX_POINT ( 'NONE', #25 ) ;
#51 = CARTESIAN_POINT ( 'NONE',  ( 1.530808498934193000E-016, 0.0000000000000000000, 0.0000000000000000000 ) ) ;
#52 = DIRECTION ( 'NONE',  ( 0.0000000000000000000, 0.0000000000000000000, 1.000000000000000000 ) ) ;
#53 = DIRECTION ( 'NONE',  ( 0.0000000000000000000, -1.000000000000000000, 0.0000000000000000000 ) ) ;
#54 = CARTESIAN_POINT ( 'NONE',  ( 0.0000000000000000000, 0.0000000000000000000, 0.0000000000000000000 ) ) ;
#55 = DIRECTION ( 'NONE',  ( -1.000000000000000000, -0.0000000000000000000, -0.0000000000000000000 ) ) ;
#56 = SURFACE_STYLE_USAGE ( .BOTH. , #58 ) ;
#57 =( LENGTH_UNIT ( ) NAMED_UNIT ( * ) SI_UNIT ( .MILLI., .METRE. ) );
#58 = SURFACE_SIDE_STYLE ('',( #82 ) ) ;
#59 = VERTEX_POINT ( 'NONE', #33 ) ;
#60 = DIRECTION ( 'NONE',  ( 0.0000000000000000000, -1.224646799147374200E-016, 1.000000000000000000 ) ) ;
#61 = CARTESIAN_POINT ( 'NONE',  ( 0.0000000000000000000, 3.006507891906751700E-014, -245.4999999999999700 ) ) ;
#62 = DIRECTION ( 'NONE',  ( 0.0000000000000000000, 0.0000000000000000000, -1.000000000000000000 ) ) ;
#63 = FILL_AREA_STYLE_COLOUR ( '', #79 ) ;
#64 = FILL_AREA_STYLE_COLOUR ( '', #99 ) ;
#65 = DIRECTION ( 'NONE',  ( -1.000000000000000000, -0.0000000000000000000, -0.0000000000000000000 ) ) ;
#66 = CARTESIAN_POINT ( 'NONE',  ( 0.0000000000000000000, 0.0000000000000000000, 0.0000000000000000000 ) ) ;
#67 = DIRECTION ( 'NONE',  ( 0.0000000000000000000, -1.000000000000000000, 0.0000000000000000000 ) ) ;
#68 = FILL_AREA_STYLE ('',( #64 ) ) ;
#69 =( NAMED_UNIT ( * ) PLANE_ANGLE_UNIT ( ) SI_UNIT ( $, .RADIAN. ) );
#70 = CIRCLE ( 'NONE', #128, 1.250000000000001100 ) ;
#71 = FACE_OUTER_BOUND ( 'NONE', #80, .T. ) ;
#72 = ORIENTED_EDGE ( 'NONE', *, *, #130, .T. ) ;
#73 = ORIENTED_EDGE ( 'NONE', *, *, #142, .F. ) ;
#74 = ORIENTED_EDGE ( 'NONE', *, *, #140, .T. ) ;
#75 = ORIENTED_EDGE ( 'NONE', *, *, #142, .T. ) ;
#76 = ORIENTED_EDGE ( 'NONE', *, *, #143, .T. ) ;
#77 = ORIENTED_EDGE ( 'NONE', *, *, #152, .T. ) ;
#78 = ORIENTED_EDGE ( 'NONE', *, *, #126, .T. ) ;
#79 = COLOUR_RGB ( '',0.3843137254901960500, 0.3843137254901960500, 0.3843137254901960500 ) ;
#80 = EDGE_LOOP ( 'NONE', ( #104, #93, #84, #76 ) ) ;
#81 = FACE_OUTER_BOUND ( 'NONE', #115, .T. ) ;
#82 = SURFACE_STYLE_FILL_AREA ( #68 ) ;
#83 = CIRCLE ( 'NONE', #150, 247.9999999999999700 ) ;
#84 = ORIENTED_EDGE ( 'NONE', *, *, #134, .T. ) ;
#85 = ORIENTED_EDGE ( 'NONE', *, *, #126, .F. ) ;
#86 = SURFACE_STYLE_FILL_AREA ( #18 ) ;
#87 =( GEOMETRIC_REPRESENTATION_CONTEXT ( 3 ) GLOBAL_UNCERTAINTY_ASSIGNED_CONTEXT ( ( #121 ) ) GLOBAL_UNIT_ASSIGNED_CONTEXT ( ( #13, #1, #2 ) ) REPRESENTATION_CONTEXT ( 'NONE', 'WORKASPACE' ) );
#88 = CLOSED_SHELL ( 'NONE', ( #155, #158, #156, #157 ) ) ;
#89 = PRESENTATION_STYLE_ASSIGNMENT (( #11 ) ) ;
#90 = EDGE_LOOP ( 'NONE', ( #98, #74, #72, #94 ) ) ;
#91 = CIRCLE ( 'NONE', #141, 247.9999999999999700 ) ;
#92 =( GEOMETRIC_REPRESENTATION_CONTEXT ( 3 ) GLOBAL_UNCERTAINTY_ASSIGNED_CONTEXT ( ( #123 ) ) GLOBAL_UNIT_ASSIGNED_CONTEXT ( ( #57, #69, #42 ) ) REPRESENTATION_CONTEXT ( 'NONE', 'WORKASPACE' ) );
#93 = ORIENTED_EDGE ( 'NONE', *, *, #152, .F. ) ;
#94 = ORIENTED_EDGE ( 'NONE', *, *, #134, .F. ) ;
#95 =( GEOMETRIC_REPRESENTATION_CONTEXT ( 3 ) GLOBAL_UNCERTAINTY_ASSIGNED_CONTEXT ( ( #119 ) ) GLOBAL_UNIT_ASSIGNED_CONTEXT ( ( #28, #20, #32 ) ) REPRESENTATION_CONTEXT ( 'NONE', 'WORKASPACE' ) );
#96 = CIRCLE ( 'NONE', #137, 245.4999999999999700 ) ;
#97 = CIRCLE ( 'NONE', #148, 1.250000000000001100 ) ;
#98 = ORIENTED_EDGE ( 'NONE', *, *, #151, .F. ) ;
#99 = COLOUR_RGB ( '',0.3843137254901960500, 0.3843137254901960500, 0.3843137254901960500 ) ;
#100 = ORIENTED_EDGE ( 'NONE', *, *, #143, .F. ) ;
#101 = ORIENTED_EDGE ( 'NONE', *, *, #130, .F. ) ;
#102 = TOROIDAL_SURFACE ( 'NONE', #127, 246.7499999999999700, 1.250000000000001100 ) ;
#103 = PRESENTATION_STYLE_ASSIGNMENT (( #56 ) ) ;
#104 = ORIENTED_EDGE ( 'NONE', *, *, #140, .F. ) ;
#105 = TOROIDAL_SURFACE ( 'NONE', #136, 246.7499999999999700, 1.250000000000001100 ) ;
#106 = CIRCLE ( 'NONE', #124, 245.4999999999999700 ) ;
#107 = TOROIDAL_SURFACE ( 'NONE', #146, 246.7499999999999700, 1.250000000000001100 ) ;
#108 = FACE_OUTER_BOUND ( 'NONE', #90, .T. ) ;
#109 = SHAPE_DEFINITION_REPRESENTATION ( #118, #122 ) ;
#110 = CIRCLE ( 'NONE', #145, 1.250000000000001100 ) ;
#111 = CIRCLE ( 'NONE', #149, 1.250000000000001100 ) ;
#112 = ORIENTED_EDGE ( 'NONE', *, *, #151, .T. ) ;
#113 = FACE_OUTER_BOUND ( 'NONE', #114, .T. ) ;
#114 = EDGE_LOOP ( 'NONE', ( #85, #100, #75, #77 ) ) ;
#115 = EDGE_LOOP ( 'NONE', ( #101, #78, #112, #73 ) ) ;
#116 = TOROIDAL_SURFACE ( 'NONE', #131, 246.7499999999999700, 1.250000000000001100 ) ;
#117 = PRODUCT_DEFINITION_CONTEXT ( 'detailed design', #9, 'design' ) ;
#118 = PRODUCT_DEFINITION_SHAPE ( 'NONE', 'NONE',  #144 ) ;
#119 = UNCERTAINTY_MEASURE_WITH_UNIT (LENGTH_MEASURE( 1.000000000000000100E-005 ), #28, 'distance_accuracy_value', 'NONE');
#120 = MANIFOLD_SOLID_BREP ( 'Rotation1', #88 ) ;
#121 = UNCERTAINTY_MEASURE_WITH_UNIT (LENGTH_MEASURE( 1.000000000000000100E-005 ), #13, 'distance_accuracy_value', 'NONE');
#122 = ADVANCED_BREP_SHAPE_REPRESENTATION ( '602 DOR 450-S1', ( #120, #147 ), #95 ) ;
#123 = UNCERTAINTY_MEASURE_WITH_UNIT (LENGTH_MEASURE( 1.000000000000000100E-005 ), #57, 'distance_accuracy_value', 'NONE');
#124 = AXIS2_PLACEMENT_3D ( 'NONE', #23, #26, #38 ) ;
#125 = PRESENTATION_LAYER_ASSIGNMENT (  '', '', ( #153 ) ) ;
#126 = EDGE_CURVE ( 'NONE', #59, #14, #91, .T. ) ;
#127 = AXIS2_PLACEMENT_3D ( 'NONE', #66, #48, #15 ) ;
#128 = AXIS2_PLACEMENT_3D ( 'NONE', #21, #67, #62 ) ;
#129 = MECHANICAL_DESIGN_GEOMETRIC_PRESENTATION_REPRESENTATION (  '', ( #135 ), #92 ) ;
#130 = EDGE_CURVE ( 'NONE', #59, #22, #111, .T. ) ;
#131 = AXIS2_PLACEMENT_3D ( 'NONE', #30, #65, #17 ) ;
#132 = PRODUCT_DEFINITION_FORMATION_WITH_SPECIFIED_SOURCE ( 'ANY', '', #154, .NOT_KNOWN. ) ;
#133 = PRODUCT_RELATED_PRODUCT_CATEGORY ( 'part', '', ( #154 ) ) ;
#134 = EDGE_CURVE ( 'NONE', #50, #22, #106, .T. ) ;
#135 = STYLED_ITEM ( 'NONE', ( #103 ), #120 ) ;
#136 = AXIS2_PLACEMENT_3D ( 'NONE', #31, #46, #37 ) ;
#137 = AXIS2_PLACEMENT_3D ( 'NONE', #51, #44, #43 ) ;
#138 = PRESENTATION_LAYER_ASSIGNMENT (  '', '', ( #135 ) ) ;
#139 = MECHANICAL_DESIGN_GEOMETRIC_PRESENTATION_REPRESENTATION (  '', ( #153 ), #87 ) ;
#140 = EDGE_CURVE ( 'NONE', #14, #59, #83, .T. ) ;
#141 = AXIS2_PLACEMENT_3D ( 'NONE', #54, #55, #35 ) ;
#142 = EDGE_CURVE ( 'NONE', #22, #50, #96, .T. ) ;
#143 = EDGE_CURVE ( 'NONE', #22, #59, #97, .T. ) ;
#144 = PRODUCT_DEFINITION ( 'UNKNOWN', '', #132, #117 ) ;
#145 = AXIS2_PLACEMENT_3D ( 'NONE', #39, #53, #27 ) ;
#146 = AXIS2_PLACEMENT_3D ( 'NONE', #29, #16, #52 ) ;
#147 = AXIS2_PLACEMENT_3D ( 'NONE', #3, #4, #5 ) ;
#148 = AXIS2_PLACEMENT_3D ( 'NONE', #41, #19, #60 ) ;
#149 = AXIS2_PLACEMENT_3D ( 'NONE', #34, #45, #24 ) ;
#150 = AXIS2_PLACEMENT_3D ( 'NONE', #40, #47, #49 ) ;
#151 = EDGE_CURVE ( 'NONE', #14, #50, #110, .T. ) ;
#152 = EDGE_CURVE ( 'NONE', #50, #14, #70, .T. ) ;
#153 = STYLED_ITEM ( 'NONE', ( #89 ), #122 ) ;
#154 = PRODUCT ( '602 DOR 450-S1', '602 DOR 450-S1', '', ( #8 ) ) ;
#155 = ADVANCED_FACE ( 'NONE', ( #81 ), #102, .T. ) ;
#156 = ADVANCED_FACE ( 'NONE', ( #71 ), #107, .T. ) ;
#157 = ADVANCED_FACE ( 'NONE', ( #113 ), #116, .T. ) ;
#158 = ADVANCED_FACE ( 'NONE', ( #108 ), #105, .T. ) ;
ENDSEC;
END-ISO-10303-21;
