ISO-10303-21;
HEADER;
FILE_DESCRIPTION (( 'STEP AP214' ),
    '1' );
FILE_NAME ('402DFL250-S1.step',
    '2017-07-07T09:58:16',
    ( 'install' ),
    ( '' ),
    'SwSTEP 2.0',
    'SolidWorks 2015',
    '' );
FILE_SCHEMA (( 'AUTOMOTIVE_DESIGN' ));
ENDSEC;

DATA;
#1 = DIRECTION ( 'NONE',  ( 1.000000000000000000, 0.0000000000000000000, 0.0000000000000000000 ) ) ;
#2 = EDGE_LOOP ( 'NONE', ( #213, #65 ) ) ;
#3 = FACE_OUTER_BOUND ( 'NONE', #181, .T. ) ;
#4 = FILL_AREA_STYLE ('',( #80 ) ) ;
#5 = EDGE_CURVE ( 'NONE', #82, #89, #77, .T. ) ;
#6 = SURFACE_STYLE_FILL_AREA ( #4 ) ;
#7 = DIRECTION ( 'NONE',  ( 0.0000000000000000000, 0.0000000000000000000, 1.000000000000000000 ) ) ;
#8 = PRODUCT ( '402DFL250-S1', '402DFL250-S1', '', ( #194 ) ) ;
#9 = ORIENTED_EDGE ( 'NONE', *, *, #75, .T. ) ;
#10 = CARTESIAN_POINT ( 'NONE',  ( 0.0000000000000000000, 0.0000000000000000000, -3.000000000000000000 ) ) ;
#11 = CARTESIAN_POINT ( 'NONE',  ( 0.0000000000000000000, 0.0000000000000000000, 0.0000000000000000000 ) ) ;
#12 = CARTESIAN_POINT ( 'NONE',  ( 0.0000000000000000000, 0.0000000000000000000, -3.000000000000000000 ) ) ;
#13 = DIRECTION ( 'NONE',  ( 0.0000000000000000000, 0.0000000000000000000, 1.000000000000000000 ) ) ;
#14 = VERTEX_POINT ( 'NONE', #163 ) ;
#15 = CIRCLE ( 'NONE', #199, 127.0000000000000000 ) ;
#16 = CIRCLE ( 'NONE', #70, 127.0000000000000000 ) ;
#17 = CARTESIAN_POINT ( 'NONE',  ( 0.0000000000000000000, 0.0000000000000000000, -3.000000000000000000 ) ) ;
#18 = CARTESIAN_POINT ( 'NONE',  ( -136.5500000000000100, 1.672255204235710800E-014, -3.000000000000000000 ) ) ;
#19 =( GEOMETRIC_REPRESENTATION_CONTEXT ( 3 ) GLOBAL_UNCERTAINTY_ASSIGNED_CONTEXT ( ( #111 ) ) GLOBAL_UNIT_ASSIGNED_CONTEXT ( ( #202, #178, #72 ) ) REPRESENTATION_CONTEXT ( 'NONE', 'WORKASPACE' ) );
#20 = PRESENTATION_STYLE_ASSIGNMENT (( #44 ) ) ;
#21 = SURFACE_STYLE_USAGE ( .BOTH. , #139 ) ;
#22 = EDGE_LOOP ( 'NONE', ( #173, #196, #60, #32 ) ) ;
#23 = SURFACE_STYLE_FILL_AREA ( #157 ) ;
#24 = VECTOR ( 'NONE', #13, 1000.000000000000000 ) ;
#25 = UNCERTAINTY_MEASURE_WITH_UNIT (LENGTH_MEASURE( 1.000000000000000100E-005 ), #152, 'distance_accuracy_value', 'NONE');
#26 = EDGE_CURVE ( 'NONE', #89, #69, #83, .T. ) ;
#27 = DIRECTION ( 'NONE',  ( 0.0000000000000000000, 0.0000000000000000000, 1.000000000000000000 ) ) ;
#28 = ORIENTED_EDGE ( 'NONE', *, *, #172, .T. ) ;
#29 = SURFACE_SIDE_STYLE ('',( #23 ) ) ;
#30 = AXIS2_PLACEMENT_3D ( 'NONE', #208, #168, #182 ) ;
#31 = DIRECTION ( 'NONE',  ( 0.0000000000000000000, 0.0000000000000000000, 1.000000000000000000 ) ) ;
#32 = ORIENTED_EDGE ( 'NONE', *, *, #5, .F. ) ;
#33 = ORIENTED_EDGE ( 'NONE', *, *, #38, .F. ) ;
#34 = EDGE_CURVE ( 'NONE', #69, #89, #153, .T. ) ;
#35 = FILL_AREA_STYLE_COLOUR ( '', #147 ) ;
#36 = UNCERTAINTY_MEASURE_WITH_UNIT (LENGTH_MEASURE( 1.000000000000000100E-005 ), #53, 'distance_accuracy_value', 'NONE');
#37 =( NAMED_UNIT ( * ) PLANE_ANGLE_UNIT ( ) SI_UNIT ( $, .RADIAN. ) );
#38 = EDGE_CURVE ( 'NONE', #14, #120, #16, .T. ) ;
#39 = EDGE_LOOP ( 'NONE', ( #33, #28, #40, #207 ) ) ;
#40 = ORIENTED_EDGE ( 'NONE', *, *, #51, .T. ) ;
#41 = DIRECTION ( 'NONE',  ( 1.000000000000000000, 0.0000000000000000000, 0.0000000000000000000 ) ) ;
#42 = PLANE ( 'NONE',  #30 ) ;
#43 = AXIS2_PLACEMENT_3D ( 'NONE', #46, #132, #169 ) ;
#44 = SURFACE_STYLE_USAGE ( .BOTH. , #29 ) ;
#45 = CIRCLE ( 'NONE', #210, 136.5500000000000100 ) ;
#46 = CARTESIAN_POINT ( 'NONE',  ( 0.0000000000000000000, 0.0000000000000000000, 0.0000000000000000000 ) ) ;
#47 = DIRECTION ( 'NONE',  ( 0.0000000000000000000, 0.0000000000000000000, 1.000000000000000000 ) ) ;
#48 = DIRECTION ( 'NONE',  ( 0.0000000000000000000, 0.0000000000000000000, 1.000000000000000000 ) ) ;
#49 = CARTESIAN_POINT ( 'NONE',  ( 136.5500000000000100, 0.0000000000000000000, -3.000000000000000000 ) ) ;
#50 = CYLINDRICAL_SURFACE ( 'NONE', #141, 127.0000000000000000 ) ;
#51 = EDGE_CURVE ( 'NONE', #106, #71, #122, .T. ) ;
#52 = DIRECTION ( 'NONE',  ( 0.0000000000000000000, 0.0000000000000000000, 1.000000000000000000 ) ) ;
#53 =( LENGTH_UNIT ( ) NAMED_UNIT ( * ) SI_UNIT ( .MILLI., .METRE. ) );
#54 = ORIENTED_EDGE ( 'NONE', *, *, #63, .T. ) ;
#55 = ORIENTED_EDGE ( 'NONE', *, *, #26, .T. ) ;
#56 = AXIS2_PLACEMENT_3D ( 'NONE', #124, #62, #41 ) ;
#57 = LINE ( 'NONE', #146, #138 ) ;
#58 = ORIENTED_EDGE ( 'NONE', *, *, #177, .T. ) ;
#59 = AXIS2_PLACEMENT_3D ( 'NONE', #109, #27, #103 ) ;
#60 = ORIENTED_EDGE ( 'NONE', *, *, #26, .F. ) ;
#61 = ORIENTED_EDGE ( 'NONE', *, *, #172, .F. ) ;
#62 = DIRECTION ( 'NONE',  ( 0.0000000000000000000, 0.0000000000000000000, 1.000000000000000000 ) ) ;
#63 = EDGE_CURVE ( 'NONE', #71, #106, #140, .T. ) ;
#64 = CARTESIAN_POINT ( 'NONE',  ( 136.5500000000000100, 0.0000000000000000000, -3.000000000000000000 ) ) ;
#65 = ORIENTED_EDGE ( 'NONE', *, *, #51, .F. ) ;
#66 = ORIENTED_EDGE ( 'NONE', *, *, #183, .T. ) ;
#67 = AXIS2_PLACEMENT_3D ( 'NONE', #12, #7, #198 ) ;
#68 = DIRECTION ( 'NONE',  ( 1.000000000000000000, 0.0000000000000000000, 0.0000000000000000000 ) ) ;
#69 = VERTEX_POINT ( 'NONE', #125 ) ;
#70 = AXIS2_PLACEMENT_3D ( 'NONE', #105, #201, #81 ) ;
#71 = VERTEX_POINT ( 'NONE', #149 ) ;
#72 =( NAMED_UNIT ( * ) SI_UNIT ( $, .STERADIAN. ) SOLID_ANGLE_UNIT ( ) );
#73 = DIRECTION ( 'NONE',  ( 1.000000000000000000, 0.0000000000000000000, 0.0000000000000000000 ) ) ;
#74 = ADVANCED_FACE ( 'NONE', ( #99 ), #50, .F. ) ;
#75 = EDGE_CURVE ( 'NONE', #120, #71, #128, .T. ) ;
#76 = EDGE_LOOP ( 'NONE', ( #66, #93 ) ) ;
#77 = LINE ( 'NONE', #64, #142 ) ;
#78 = STYLED_ITEM ( 'NONE', ( #209 ), #193 ) ;
#79 = ORIENTED_EDGE ( 'NONE', *, *, #183, .F. ) ;
#80 = FILL_AREA_STYLE_COLOUR ( '', #101 ) ;
#81 = DIRECTION ( 'NONE',  ( 1.000000000000000000, 0.0000000000000000000, 0.0000000000000000000 ) ) ;
#82 = VERTEX_POINT ( 'NONE', #49 ) ;
#83 = CIRCLE ( 'NONE', #43, 136.5500000000000100 ) ;
#84 = AXIS2_PLACEMENT_3D ( 'NONE', #133, #170, #159 ) ;
#85 = PRODUCT_DEFINITION_FORMATION_WITH_SPECIFIED_SOURCE ( 'ANY', '', #8, .NOT_KNOWN. ) ;
#86 = FACE_BOUND ( 'NONE', #76, .T. ) ;
#87 = EDGE_CURVE ( 'NONE', #98, #69, #191, .T. ) ;
#88 = ORIENTED_EDGE ( 'NONE', *, *, #87, .F. ) ;
#89 = VERTEX_POINT ( 'NONE', #174 ) ;
#90 = CARTESIAN_POINT ( 'NONE',  ( 0.0000000000000000000, 0.0000000000000000000, -3.000000000000000000 ) ) ;
#91 = DIRECTION ( 'NONE',  ( 1.000000000000000000, 0.0000000000000000000, 0.0000000000000000000 ) ) ;
#92 = FACE_OUTER_BOUND ( 'NONE', #116, .T. ) ;
#93 = ORIENTED_EDGE ( 'NONE', *, *, #38, .T. ) ;
#94 = PRESENTATION_LAYER_ASSIGNMENT (  '', '', ( #78 ) ) ;
#95 = ORIENTED_EDGE ( 'NONE', *, *, #34, .F. ) ;
#96 = APPLICATION_PROTOCOL_DEFINITION ( 'draft international standard', 'automotive_design', 1998, #121 ) ;
#97 = APPLICATION_CONTEXT ( 'automotive_design' ) ;
#98 = VERTEX_POINT ( 'NONE', #18 ) ;
#99 = FACE_OUTER_BOUND ( 'NONE', #39, .T. ) ;
#100 = AXIS2_PLACEMENT_3D ( 'NONE', #119, #214, #137 ) ;
#101 = COLOUR_RGB ( '',0.3843137254901960500, 0.3843137254901960500, 0.3843137254901960500 ) ;
#102 = PRODUCT_RELATED_PRODUCT_CATEGORY ( 'part', '', ( #8 ) ) ;
#103 = DIRECTION ( 'NONE',  ( 1.000000000000000000, 0.0000000000000000000, 0.0000000000000000000 ) ) ;
#104 = CYLINDRICAL_SURFACE ( 'NONE', #185, 136.5500000000000100 ) ;
#105 = CARTESIAN_POINT ( 'NONE',  ( 0.0000000000000000000, 0.0000000000000000000, -3.000000000000000000 ) ) ;
#106 = VERTEX_POINT ( 'NONE', #186 ) ;
#107 = ORIENTED_EDGE ( 'NONE', *, *, #34, .T. ) ;
#108 = MECHANICAL_DESIGN_GEOMETRIC_PRESENTATION_REPRESENTATION (  '', ( #78 ), #123 ) ;
#109 = CARTESIAN_POINT ( 'NONE',  ( 0.0000000000000000000, 0.0000000000000000000, 0.0000000000000000000 ) ) ;
#110 = ORIENTED_EDGE ( 'NONE', *, *, #187, .F. ) ;
#111 = UNCERTAINTY_MEASURE_WITH_UNIT (LENGTH_MEASURE( 1.000000000000000100E-005 ), #202, 'distance_accuracy_value', 'NONE');
#112 = CARTESIAN_POINT ( 'NONE',  ( 127.0000000000000000, 0.0000000000000000000, -3.000000000000000000 ) ) ;
#113 = DIRECTION ( 'NONE',  ( 0.0000000000000000000, 0.0000000000000000000, 1.000000000000000000 ) ) ;
#114 = PRESENTATION_LAYER_ASSIGNMENT (  '', '', ( #130 ) ) ;
#115 =( NAMED_UNIT ( * ) PLANE_ANGLE_UNIT ( ) SI_UNIT ( $, .RADIAN. ) );
#116 = EDGE_LOOP ( 'NONE', ( #55, #107 ) ) ;
#117 = FACE_OUTER_BOUND ( 'NONE', #154, .T. ) ;
#118 = EDGE_LOOP ( 'NONE', ( #88, #58, #127, #95 ) ) ;
#119 = CARTESIAN_POINT ( 'NONE',  ( 0.0000000000000000000, 0.0000000000000000000, 0.0000000000000000000 ) ) ;
#120 = VERTEX_POINT ( 'NONE', #166 ) ;
#121 = APPLICATION_CONTEXT ( 'automotive_design' ) ;
#122 = CIRCLE ( 'NONE', #84, 127.0000000000000000 ) ;
#123 =( GEOMETRIC_REPRESENTATION_CONTEXT ( 3 ) GLOBAL_UNCERTAINTY_ASSIGNED_CONTEXT ( ( #25 ) ) GLOBAL_UNIT_ASSIGNED_CONTEXT ( ( #152, #37, #167 ) ) REPRESENTATION_CONTEXT ( 'NONE', 'WORKASPACE' ) );
#124 = CARTESIAN_POINT ( 'NONE',  ( 0.0000000000000000000, 0.0000000000000000000, -3.000000000000000000 ) ) ;
#125 = CARTESIAN_POINT ( 'NONE',  ( -136.5500000000000100, 1.672255204235710800E-014, 0.0000000000000000000 ) ) ;
#126 = DIRECTION ( 'NONE',  ( 1.000000000000000000, 0.0000000000000000000, 0.0000000000000000000 ) ) ;
#127 = ORIENTED_EDGE ( 'NONE', *, *, #5, .T. ) ;
#128 = LINE ( 'NONE', #112, #136 ) ;
#129 = DIRECTION ( 'NONE',  ( 0.0000000000000000000, 0.0000000000000000000, 1.000000000000000000 ) ) ;
#130 = STYLED_ITEM ( 'NONE', ( #20 ), #131 ) ;
#131 = MANIFOLD_SOLID_BREP ( 'Aufsatz-Linear austragen1', #162 ) ;
#132 = DIRECTION ( 'NONE',  ( 0.0000000000000000000, 0.0000000000000000000, 1.000000000000000000 ) ) ;
#133 = CARTESIAN_POINT ( 'NONE',  ( 0.0000000000000000000, 0.0000000000000000000, 0.0000000000000000000 ) ) ;
#134 = PLANE ( 'NONE',  #205 ) ;
#135 = DIRECTION ( 'NONE',  ( 1.000000000000000000, 0.0000000000000000000, -0.0000000000000000000 ) ) ;
#136 = VECTOR ( 'NONE', #161, 1000.000000000000000 ) ;
#137 = DIRECTION ( 'NONE',  ( 1.000000000000000000, 0.0000000000000000000, 0.0000000000000000000 ) ) ;
#138 = VECTOR ( 'NONE', #52, 1000.000000000000000 ) ;
#139 = SURFACE_SIDE_STYLE ('',( #6 ) ) ;
#140 = CIRCLE ( 'NONE', #100, 127.0000000000000000 ) ;
#141 = AXIS2_PLACEMENT_3D ( 'NONE', #144, #31, #1 ) ;
#142 = VECTOR ( 'NONE', #129, 1000.000000000000000 ) ;
#143 = PRODUCT_DEFINITION_SHAPE ( 'NONE', 'NONE',  #165 ) ;
#144 = CARTESIAN_POINT ( 'NONE',  ( 0.0000000000000000000, 0.0000000000000000000, -3.000000000000000000 ) ) ;
#145 = FACE_OUTER_BOUND ( 'NONE', #22, .T. ) ;
#146 = CARTESIAN_POINT ( 'NONE',  ( -127.0000000000000000, 1.555301434917138600E-014, -3.000000000000000000 ) ) ;
#147 = COLOUR_RGB ( '',0.3843137254901960500, 0.3843137254901960500, 0.3843137254901960500 ) ;
#148 = ORIENTED_EDGE ( 'NONE', *, *, #177, .F. ) ;
#149 = CARTESIAN_POINT ( 'NONE',  ( 127.0000000000000000, 0.0000000000000000000, 0.0000000000000000000 ) ) ;
#150 = MECHANICAL_DESIGN_GEOMETRIC_PRESENTATION_REPRESENTATION (  '', ( #130 ), #158 ) ;
#151 = SHAPE_DEFINITION_REPRESENTATION ( #143, #193 ) ;
#152 =( LENGTH_UNIT ( ) NAMED_UNIT ( * ) SI_UNIT ( .MILLI., .METRE. ) );
#153 = CIRCLE ( 'NONE', #59, 136.5500000000000100 ) ;
#154 = EDGE_LOOP ( 'NONE', ( #110, #148 ) ) ;
#155 = AXIS2_PLACEMENT_3D ( 'NONE', #11, #180, #73 ) ;
#156 = CYLINDRICAL_SURFACE ( 'NONE', #56, 136.5500000000000100 ) ;
#157 = FILL_AREA_STYLE ('',( #35 ) ) ;
#158 =( GEOMETRIC_REPRESENTATION_CONTEXT ( 3 ) GLOBAL_UNCERTAINTY_ASSIGNED_CONTEXT ( ( #36 ) ) GLOBAL_UNIT_ASSIGNED_CONTEXT ( ( #53, #115, #204 ) ) REPRESENTATION_CONTEXT ( 'NONE', 'WORKASPACE' ) );
#159 = DIRECTION ( 'NONE',  ( 1.000000000000000000, 0.0000000000000000000, 0.0000000000000000000 ) ) ;
#160 = CARTESIAN_POINT ( 'NONE',  ( 0.0000000000000000000, 0.0000000000000000000, -3.000000000000000000 ) ) ;
#161 = DIRECTION ( 'NONE',  ( 0.0000000000000000000, 0.0000000000000000000, 1.000000000000000000 ) ) ;
#162 = CLOSED_SHELL ( 'NONE', ( #74, #195, #164, #192, #179, #211 ) ) ;
#163 = CARTESIAN_POINT ( 'NONE',  ( -127.0000000000000000, 1.555301434917138600E-014, -3.000000000000000000 ) ) ;
#164 = ADVANCED_FACE ( 'NONE', ( #171 ), #104, .T. ) ;
#165 = PRODUCT_DEFINITION ( 'UNKNOWN', '', #85, #200 ) ;
#166 = CARTESIAN_POINT ( 'NONE',  ( 127.0000000000000000, 0.0000000000000000000, -3.000000000000000000 ) ) ;
#167 =( NAMED_UNIT ( * ) SI_UNIT ( $, .STERADIAN. ) SOLID_ANGLE_UNIT ( ) );
#168 = DIRECTION ( 'NONE',  ( 0.0000000000000000000, 0.0000000000000000000, 1.000000000000000000 ) ) ;
#169 = DIRECTION ( 'NONE',  ( 1.000000000000000000, 0.0000000000000000000, 0.0000000000000000000 ) ) ;
#170 = DIRECTION ( 'NONE',  ( 0.0000000000000000000, 0.0000000000000000000, 1.000000000000000000 ) ) ;
#171 = FACE_OUTER_BOUND ( 'NONE', #118, .T. ) ;
#172 = EDGE_CURVE ( 'NONE', #14, #106, #57, .T. ) ;
#173 = ORIENTED_EDGE ( 'NONE', *, *, #187, .T. ) ;
#174 = CARTESIAN_POINT ( 'NONE',  ( 136.5500000000000100, 0.0000000000000000000, 0.0000000000000000000 ) ) ;
#175 = AXIS2_PLACEMENT_3D ( 'NONE', #90, #113, #68 ) ;
#176 = CARTESIAN_POINT ( 'NONE',  ( -136.5500000000000100, 1.672255204235710800E-014, -3.000000000000000000 ) ) ;
#177 = EDGE_CURVE ( 'NONE', #98, #82, #190, .T. ) ;
#178 =( NAMED_UNIT ( * ) PLANE_ANGLE_UNIT ( ) SI_UNIT ( $, .RADIAN. ) );
#179 = ADVANCED_FACE ( 'NONE', ( #212, #92 ), #134, .T. ) ;
#180 = DIRECTION ( 'NONE',  ( 0.0000000000000000000, 0.0000000000000000000, 1.000000000000000000 ) ) ;
#181 = EDGE_LOOP ( 'NONE', ( #61, #79, #9, #54 ) ) ;
#182 = DIRECTION ( 'NONE',  ( 1.000000000000000000, 0.0000000000000000000, -0.0000000000000000000 ) ) ;
#183 = EDGE_CURVE ( 'NONE', #120, #14, #15, .T. ) ;
#184 = DIRECTION ( 'NONE',  ( 0.0000000000000000000, 0.0000000000000000000, 1.000000000000000000 ) ) ;
#185 = AXIS2_PLACEMENT_3D ( 'NONE', #160, #189, #91 ) ;
#186 = CARTESIAN_POINT ( 'NONE',  ( -127.0000000000000000, 1.555301434917138600E-014, 0.0000000000000000000 ) ) ;
#187 = EDGE_CURVE ( 'NONE', #82, #98, #45, .T. ) ;
#188 = DIRECTION ( 'NONE',  ( 1.000000000000000000, 0.0000000000000000000, 0.0000000000000000000 ) ) ;
#189 = DIRECTION ( 'NONE',  ( 0.0000000000000000000, 0.0000000000000000000, 1.000000000000000000 ) ) ;
#190 = CIRCLE ( 'NONE', #175, 136.5500000000000100 ) ;
#191 = LINE ( 'NONE', #176, #24 ) ;
#192 = ADVANCED_FACE ( 'NONE', ( #86, #117 ), #42, .F. ) ;
#193 = ADVANCED_BREP_SHAPE_REPRESENTATION ( '402DFL250-S1', ( #131, #155 ), #19 ) ;
#194 = PRODUCT_CONTEXT ( 'NONE', #121, 'mechanical' ) ;
#195 = ADVANCED_FACE ( 'NONE', ( #145 ), #156, .T. ) ;
#196 = ORIENTED_EDGE ( 'NONE', *, *, #87, .T. ) ;
#197 = CYLINDRICAL_SURFACE ( 'NONE', #67, 127.0000000000000000 ) ;
#198 = DIRECTION ( 'NONE',  ( 1.000000000000000000, 0.0000000000000000000, 0.0000000000000000000 ) ) ;
#199 = AXIS2_PLACEMENT_3D ( 'NONE', #17, #47, #126 ) ;
#200 = PRODUCT_DEFINITION_CONTEXT ( 'detailed design', #97, 'design' ) ;
#201 = DIRECTION ( 'NONE',  ( 0.0000000000000000000, 0.0000000000000000000, 1.000000000000000000 ) ) ;
#202 =( LENGTH_UNIT ( ) NAMED_UNIT ( * ) SI_UNIT ( .MILLI., .METRE. ) );
#203 = CARTESIAN_POINT ( 'NONE',  ( 0.0000000000000000000, 0.0000000000000000000, 0.0000000000000000000 ) ) ;
#204 =( NAMED_UNIT ( * ) SI_UNIT ( $, .STERADIAN. ) SOLID_ANGLE_UNIT ( ) );
#205 = AXIS2_PLACEMENT_3D ( 'NONE', #203, #184, #135 ) ;
#206 = APPLICATION_PROTOCOL_DEFINITION ( 'draft international standard', 'automotive_design', 1998, #97 ) ;
#207 = ORIENTED_EDGE ( 'NONE', *, *, #75, .F. ) ;
#208 = CARTESIAN_POINT ( 'NONE',  ( 0.0000000000000000000, 0.0000000000000000000, -3.000000000000000000 ) ) ;
#209 = PRESENTATION_STYLE_ASSIGNMENT (( #21 ) ) ;
#210 = AXIS2_PLACEMENT_3D ( 'NONE', #10, #48, #188 ) ;
#211 = ADVANCED_FACE ( 'NONE', ( #3 ), #197, .F. ) ;
#212 = FACE_BOUND ( 'NONE', #2, .T. ) ;
#213 = ORIENTED_EDGE ( 'NONE', *, *, #63, .F. ) ;
#214 = DIRECTION ( 'NONE',  ( 0.0000000000000000000, 0.0000000000000000000, 1.000000000000000000 ) ) ;
ENDSEC;
END-ISO-10303-21;
