ISO-10303-21;
HEADER;
FILE_DESCRIPTION (( 'STEP AP214' ),
    '1' );
FILE_NAME ('490DFL160-S-S5.stp',
    '2017-10-11T11:05:40',
    ( '' ),
    ( '' ),
    'SwSTEP 2.0',
    'SolidWorks 2015',
    '' );
FILE_SCHEMA (( 'AUTOMOTIVE_DESIGN' ));
ENDSEC;

DATA;
#1 = EDGE_CURVE ( 'NONE', #89, #51, #179, .T. ) ;
#2 = EDGE_LOOP ( 'NONE', ( #148, #70 ) ) ;
#3 = EDGE_CURVE ( 'NONE', #28, #88, #150, .T. ) ;
#4 =( NAMED_UNIT ( * ) SI_UNIT ( $, .STERADIAN. ) SOLID_ANGLE_UNIT ( ) );
#5 =( NAMED_UNIT ( * ) PLANE_ANGLE_UNIT ( ) SI_UNIT ( $, .RADIAN. ) );
#6 =( LENGTH_UNIT ( ) NAMED_UNIT ( * ) SI_UNIT ( .MILLI., .METRE. ) );
#7 = EDGE_CURVE ( 'NONE', #78, #28, #48, .T. ) ;
#8 = FILL_AREA_STYLE_COLOUR ( '', #38 ) ;
#9 = SURFACE_STYLE_USAGE ( .BOTH. , #143 ) ;
#10 = DIRECTION ( 'NONE',  ( 0.0000000000000000000, 0.0000000000000000000, 1.000000000000000000 ) ) ;
#11 = FILL_AREA_STYLE ('',( #157 ) ) ;
#12 = APPLICATION_PROTOCOL_DEFINITION ( 'draft international standard', 'automotive_design', 1998, #82 ) ;
#13 = ORIENTED_EDGE ( 'NONE', *, *, #71, .F. ) ;
#14 = ORIENTED_EDGE ( 'NONE', *, *, #113, .T. ) ;
#15 = PRODUCT_CONTEXT ( 'NONE', #82, 'mechanical' ) ;
#16 = AXIS2_PLACEMENT_3D ( 'NONE', #108, #45, #177 ) ;
#17 = AXIS2_PLACEMENT_3D ( 'NONE', #26, #58, #56 ) ;
#18 = EDGE_CURVE ( 'NONE', #51, #53, #200, .T. ) ;
#19 = CLOSED_SHELL ( 'NONE', ( #69, #35, #62, #76, #54, #84 ) ) ;
#20 = ORIENTED_EDGE ( 'NONE', *, *, #7, .F. ) ;
#21 = AXIS2_PLACEMENT_3D ( 'NONE', #202, #201, #204 ) ;
#22 =( NAMED_UNIT ( * ) SI_UNIT ( $, .STERADIAN. ) SOLID_ANGLE_UNIT ( ) );
#23 = CYLINDRICAL_SURFACE ( 'NONE', #21, 85.62500000000000000 ) ;
#24 = EDGE_CURVE ( 'NONE', #73, #78, #209, .T. ) ;
#25 =( NAMED_UNIT ( * ) PLANE_ANGLE_UNIT ( ) SI_UNIT ( $, .RADIAN. ) );
#26 = CARTESIAN_POINT ( 'NONE',  ( 0.0000000000000000000, 0.0000000000000000000, -2.000000000000000000 ) ) ;
#27 =( LENGTH_UNIT ( ) NAMED_UNIT ( * ) SI_UNIT ( .MILLI., .METRE. ) );
#28 = VERTEX_POINT ( 'NONE', #106 ) ;
#29 = DIRECTION ( 'NONE',  ( 1.000000000000000000, 0.0000000000000000000, 0.0000000000000000000 ) ) ;
#30 = AXIS2_PLACEMENT_3D ( 'NONE', #155, #153, #146 ) ;
#31 = DIRECTION ( 'NONE',  ( 0.0000000000000000000, 0.0000000000000000000, 1.000000000000000000 ) ) ;
#32 = DIRECTION ( 'NONE',  ( 0.0000000000000000000, 0.0000000000000000000, 1.000000000000000000 ) ) ;
#33 = APPLICATION_CONTEXT ( 'automotive_design' ) ;
#34 = VECTOR ( 'NONE', #10, 1000.000000000000000 ) ;
#35 = ADVANCED_FACE ( 'NONE', ( #116 ), #120, .T. ) ;
#36 = ORIENTED_EDGE ( 'NONE', *, *, #24, .T. ) ;
#37 = MANIFOLD_SOLID_BREP ( 'Aufsatz-Linear austragen1', #19 ) ;
#38 = COLOUR_RGB ( '',0.7529411764705882200, 0.7529411764705882200, 0.7529411764705882200 ) ;
#39 =( NAMED_UNIT ( * ) SI_UNIT ( $, .STERADIAN. ) SOLID_ANGLE_UNIT ( ) );
#40 = PRESENTATION_LAYER_ASSIGNMENT (  '', '', ( #147 ) ) ;
#41 = DIRECTION ( 'NONE',  ( 0.0000000000000000000, 0.0000000000000000000, 1.000000000000000000 ) ) ;
#42 =( LENGTH_UNIT ( ) NAMED_UNIT ( * ) SI_UNIT ( .MILLI., .METRE. ) );
#43 = ORIENTED_EDGE ( 'NONE', *, *, #3, .F. ) ;
#44 = CIRCLE ( 'NONE', #17, 85.62500000000000000 ) ;
#45 = DIRECTION ( 'NONE',  ( 0.0000000000000000000, 0.0000000000000000000, 1.000000000000000000 ) ) ;
#46 = CARTESIAN_POINT ( 'NONE',  ( -76.20000000000000300, 9.331808609502832200E-015, 0.0000000000000000000 ) ) ;
#47 = DIRECTION ( 'NONE',  ( 0.0000000000000000000, 0.0000000000000000000, 1.000000000000000000 ) ) ;
#48 = LINE ( 'NONE', #205, #34 ) ;
#49 = ORIENTED_EDGE ( 'NONE', *, *, #119, .T. ) ;
#50 = CARTESIAN_POINT ( 'NONE',  ( 0.0000000000000000000, 0.0000000000000000000, 0.0000000000000000000 ) ) ;
#51 = VERTEX_POINT ( 'NONE', #104 ) ;
#52 = DIRECTION ( 'NONE',  ( 0.0000000000000000000, 0.0000000000000000000, 1.000000000000000000 ) ) ;
#53 = VERTEX_POINT ( 'NONE', #46 ) ;
#54 = ADVANCED_FACE ( 'NONE', ( #214, #100 ), #63, .T. ) ;
#55 = FACE_BOUND ( 'NONE', #171, .T. ) ;
#56 = DIRECTION ( 'NONE',  ( 1.000000000000000000, 0.0000000000000000000, 0.0000000000000000000 ) ) ;
#57 = ORIENTED_EDGE ( 'NONE', *, *, #195, .F. ) ;
#58 = DIRECTION ( 'NONE',  ( 0.0000000000000000000, 0.0000000000000000000, 1.000000000000000000 ) ) ;
#59 = DIRECTION ( 'NONE',  ( 0.0000000000000000000, 0.0000000000000000000, 1.000000000000000000 ) ) ;
#60 = CARTESIAN_POINT ( 'NONE',  ( 0.0000000000000000000, 0.0000000000000000000, -2.000000000000000000 ) ) ;
#61 = SURFACE_SIDE_STYLE ('',( #203 ) ) ;
#62 = ADVANCED_FACE ( 'NONE', ( #130 ), #23, .T. ) ;
#63 = PLANE ( 'NONE',  #173 ) ;
#64 = EDGE_LOOP ( 'NONE', ( #124, #190, #83, #74 ) ) ;
#65 = AXIS2_PLACEMENT_3D ( 'NONE', #50, #41, #29 ) ;
#66 = ORIENTED_EDGE ( 'NONE', *, *, #68, .T. ) ;
#67 = UNCERTAINTY_MEASURE_WITH_UNIT (LENGTH_MEASURE( 1.000000000000000100E-005 ), #42, 'distance_accuracy_value', 'NONE');
#68 = EDGE_CURVE ( 'NONE', #114, #53, #178, .T. ) ;
#69 = ADVANCED_FACE ( 'NONE', ( #121 ), #170, .F. ) ;
#70 = ORIENTED_EDGE ( 'NONE', *, *, #195, .T. ) ;
#71 = EDGE_CURVE ( 'NONE', #114, #89, #174, .T. ) ;
#72 = CARTESIAN_POINT ( 'NONE',  ( 0.0000000000000000000, 0.0000000000000000000, 0.0000000000000000000 ) ) ;
#73 = VERTEX_POINT ( 'NONE', #182 ) ;
#74 = ORIENTED_EDGE ( 'NONE', *, *, #18, .T. ) ;
#75 = CARTESIAN_POINT ( 'NONE',  ( -76.20000000000000300, 9.331808609502832200E-015, -2.000000000000000000 ) ) ;
#76 = ADVANCED_FACE ( 'NONE', ( #55, #169 ), #161, .F. ) ;
#77 = DIRECTION ( 'NONE',  ( 1.000000000000000000, 0.0000000000000000000, 0.0000000000000000000 ) ) ;
#78 = VERTEX_POINT ( 'NONE', #176 ) ;
#79 = EDGE_LOOP ( 'NONE', ( #13, #66, #172, #103 ) ) ;
#80 = DIRECTION ( 'NONE',  ( 0.0000000000000000000, 0.0000000000000000000, 1.000000000000000000 ) ) ;
#81 = CARTESIAN_POINT ( 'NONE',  ( 0.0000000000000000000, 0.0000000000000000000, 0.0000000000000000000 ) ) ;
#82 = APPLICATION_CONTEXT ( 'automotive_design' ) ;
#83 = ORIENTED_EDGE ( 'NONE', *, *, #1, .T. ) ;
#84 = ADVANCED_FACE ( 'NONE', ( #175 ), #184, .F. ) ;
#85 = EDGE_LOOP ( 'NONE', ( #86, #36, #93, #57 ) ) ;
#86 = ORIENTED_EDGE ( 'NONE', *, *, #113, .F. ) ;
#87 = EDGE_LOOP ( 'NONE', ( #117, #185 ) ) ;
#88 = VERTEX_POINT ( 'NONE', #110 ) ;
#89 = VERTEX_POINT ( 'NONE', #109 ) ;
#90 = ORIENTED_EDGE ( 'NONE', *, *, #123, .T. ) ;
#91 = UNCERTAINTY_MEASURE_WITH_UNIT (LENGTH_MEASURE( 1.000000000000000100E-005 ), #6, 'distance_accuracy_value', 'NONE');
#92 = DIRECTION ( 'NONE',  ( 1.000000000000000000, 0.0000000000000000000, 0.0000000000000000000 ) ) ;
#93 = ORIENTED_EDGE ( 'NONE', *, *, #7, .T. ) ;
#94 = CARTESIAN_POINT ( 'NONE',  ( 0.0000000000000000000, 0.0000000000000000000, 0.0000000000000000000 ) ) ;
#95 =( NAMED_UNIT ( * ) PLANE_ANGLE_UNIT ( ) SI_UNIT ( $, .RADIAN. ) );
#96 = DIRECTION ( 'NONE',  ( 0.0000000000000000000, 0.0000000000000000000, 1.000000000000000000 ) ) ;
#97 = ADVANCED_BREP_SHAPE_REPRESENTATION ( '490DFL160-S-S5', ( #37, #152 ), #134 ) ;
#98 = DIRECTION ( 'NONE',  ( 0.0000000000000000000, 0.0000000000000000000, 1.000000000000000000 ) ) ;
#99 = ORIENTED_EDGE ( 'NONE', *, *, #18, .F. ) ;
#100 = FACE_OUTER_BOUND ( 'NONE', #2, .T. ) ;
#101 = STYLED_ITEM ( 'NONE', ( #207 ), #97 ) ;
#102 = ORIENTED_EDGE ( 'NONE', *, *, #107, .F. ) ;
#103 = ORIENTED_EDGE ( 'NONE', *, *, #1, .F. ) ;
#104 = CARTESIAN_POINT ( 'NONE',  ( 76.20000000000000300, 0.0000000000000000000, 0.0000000000000000000 ) ) ;
#105 = CARTESIAN_POINT ( 'NONE',  ( -85.62500000000000000, 1.048603821769921300E-014, -2.000000000000000000 ) ) ;
#106 = CARTESIAN_POINT ( 'NONE',  ( 85.62500000000000000, 0.0000000000000000000, 0.0000000000000000000 ) ) ;
#107 = EDGE_CURVE ( 'NONE', #53, #51, #159, .T. ) ;
#108 = CARTESIAN_POINT ( 'NONE',  ( 0.0000000000000000000, 0.0000000000000000000, 0.0000000000000000000 ) ) ;
#109 = CARTESIAN_POINT ( 'NONE',  ( 76.20000000000000300, 0.0000000000000000000, -2.000000000000000000 ) ) ;
#110 = CARTESIAN_POINT ( 'NONE',  ( -85.62500000000000000, 1.048603821769921300E-014, 0.0000000000000000000 ) ) ;
#111 = SHAPE_DEFINITION_REPRESENTATION ( #198, #97 ) ;
#112 = DIRECTION ( 'NONE',  ( 1.000000000000000000, 0.0000000000000000000, 0.0000000000000000000 ) ) ;
#113 = EDGE_CURVE ( 'NONE', #73, #88, #163, .T. ) ;
#114 = VERTEX_POINT ( 'NONE', #75 ) ;
#115 = PRODUCT_RELATED_PRODUCT_CATEGORY ( 'part', '', ( #145 ) ) ;
#116 = FACE_OUTER_BOUND ( 'NONE', #154, .T. ) ;
#117 = ORIENTED_EDGE ( 'NONE', *, *, #123, .F. ) ;
#118 = PRESENTATION_STYLE_ASSIGNMENT (( #210 ) ) ;
#119 = EDGE_CURVE ( 'NONE', #89, #114, #149, .T. ) ;
#120 = CYLINDRICAL_SURFACE ( 'NONE', #208, 85.62500000000000000 ) ;
#121 = FACE_OUTER_BOUND ( 'NONE', #79, .T. ) ;
#122 = CARTESIAN_POINT ( 'NONE',  ( 0.0000000000000000000, 0.0000000000000000000, -2.000000000000000000 ) ) ;
#123 = EDGE_CURVE ( 'NONE', #78, #73, #44, .T. ) ;
#124 = ORIENTED_EDGE ( 'NONE', *, *, #68, .F. ) ;
#125 = CARTESIAN_POINT ( 'NONE',  ( 0.0000000000000000000, 0.0000000000000000000, -2.000000000000000000 ) ) ;
#126 = MECHANICAL_DESIGN_GEOMETRIC_PRESENTATION_REPRESENTATION (  '', ( #101 ), #167 ) ;
#127 = EDGE_LOOP ( 'NONE', ( #99, #102 ) ) ;
#128 = DIRECTION ( 'NONE',  ( 1.000000000000000000, 0.0000000000000000000, -0.0000000000000000000 ) ) ;
#129 = DIRECTION ( 'NONE',  ( 0.0000000000000000000, 0.0000000000000000000, 1.000000000000000000 ) ) ;
#130 = FACE_OUTER_BOUND ( 'NONE', #85, .T. ) ;
#131 = CARTESIAN_POINT ( 'NONE',  ( 0.0000000000000000000, 0.0000000000000000000, -2.000000000000000000 ) ) ;
#132 = AXIS2_PLACEMENT_3D ( 'NONE', #122, #96, #92 ) ;
#133 = AXIS2_PLACEMENT_3D ( 'NONE', #131, #129, #136 ) ;
#134 =( GEOMETRIC_REPRESENTATION_CONTEXT ( 3 ) GLOBAL_UNCERTAINTY_ASSIGNED_CONTEXT ( ( #168 ) ) GLOBAL_UNIT_ASSIGNED_CONTEXT ( ( #27, #25, #22 ) ) REPRESENTATION_CONTEXT ( 'NONE', 'WORKASPACE' ) );
#135 = CARTESIAN_POINT ( 'NONE',  ( 0.0000000000000000000, 0.0000000000000000000, 0.0000000000000000000 ) ) ;
#136 = DIRECTION ( 'NONE',  ( 1.000000000000000000, 0.0000000000000000000, 0.0000000000000000000 ) ) ;
#137 =( GEOMETRIC_REPRESENTATION_CONTEXT ( 3 ) GLOBAL_UNCERTAINTY_ASSIGNED_CONTEXT ( ( #67 ) ) GLOBAL_UNIT_ASSIGNED_CONTEXT ( ( #42, #95, #39 ) ) REPRESENTATION_CONTEXT ( 'NONE', 'WORKASPACE' ) );
#138 = FILL_AREA_STYLE ('',( #8 ) ) ;
#139 = DIRECTION ( 'NONE',  ( 1.000000000000000000, 0.0000000000000000000, 0.0000000000000000000 ) ) ;
#140 = DIRECTION ( 'NONE',  ( 1.000000000000000000, 0.0000000000000000000, -0.0000000000000000000 ) ) ;
#141 = ORIENTED_EDGE ( 'NONE', *, *, #71, .T. ) ;
#142 = DIRECTION ( 'NONE',  ( 0.0000000000000000000, 0.0000000000000000000, 1.000000000000000000 ) ) ;
#143 = SURFACE_SIDE_STYLE ('',( #187 ) ) ;
#144 = CARTESIAN_POINT ( 'NONE',  ( 0.0000000000000000000, 0.0000000000000000000, -2.000000000000000000 ) ) ;
#145 = PRODUCT ( '490DFL160-S-S5', '490DFL160-S-S5', '', ( #15 ) ) ;
#146 = DIRECTION ( 'NONE',  ( 1.000000000000000000, 0.0000000000000000000, 0.0000000000000000000 ) ) ;
#147 = STYLED_ITEM ( 'NONE', ( #118 ), #37 ) ;
#148 = ORIENTED_EDGE ( 'NONE', *, *, #3, .T. ) ;
#149 = CIRCLE ( 'NONE', #158, 76.20000000000000300 ) ;
#150 = CIRCLE ( 'NONE', #16, 85.62500000000000000 ) ;
#151 = AXIS2_PLACEMENT_3D ( 'NONE', #94, #80, #77 ) ;
#152 = AXIS2_PLACEMENT_3D ( 'NONE', #72, #181, #196 ) ;
#153 = DIRECTION ( 'NONE',  ( 0.0000000000000000000, 0.0000000000000000000, 1.000000000000000000 ) ) ;
#154 = EDGE_LOOP ( 'NONE', ( #90, #14, #43, #20 ) ) ;
#155 = CARTESIAN_POINT ( 'NONE',  ( 0.0000000000000000000, 0.0000000000000000000, -2.000000000000000000 ) ) ;
#156 = CARTESIAN_POINT ( 'NONE',  ( -76.20000000000000300, 9.331808609502832200E-015, -2.000000000000000000 ) ) ;
#157 = FILL_AREA_STYLE_COLOUR ( '', #212 ) ;
#158 = AXIS2_PLACEMENT_3D ( 'NONE', #60, #52, #112 ) ;
#159 = CIRCLE ( 'NONE', #151, 76.20000000000000300 ) ;
#160 = PRODUCT_DEFINITION ( 'UNKNOWN', '', #191, #199 ) ;
#161 = PLANE ( 'NONE',  #186 ) ;
#162 = CIRCLE ( 'NONE', #65, 85.62500000000000000 ) ;
#163 = LINE ( 'NONE', #105, #183 ) ;
#164 = DIRECTION ( 'NONE',  ( 0.0000000000000000000, 0.0000000000000000000, 1.000000000000000000 ) ) ;
#165 = AXIS2_PLACEMENT_3D ( 'NONE', #135, #47, #139 ) ;
#166 = APPLICATION_PROTOCOL_DEFINITION ( 'draft international standard', 'automotive_design', 1998, #33 ) ;
#167 =( GEOMETRIC_REPRESENTATION_CONTEXT ( 3 ) GLOBAL_UNCERTAINTY_ASSIGNED_CONTEXT ( ( #91 ) ) GLOBAL_UNIT_ASSIGNED_CONTEXT ( ( #6, #5, #4 ) ) REPRESENTATION_CONTEXT ( 'NONE', 'WORKASPACE' ) );
#168 = UNCERTAINTY_MEASURE_WITH_UNIT (LENGTH_MEASURE( 1.000000000000000100E-005 ), #27, 'distance_accuracy_value', 'NONE');
#169 = FACE_OUTER_BOUND ( 'NONE', #87, .T. ) ;
#170 = CYLINDRICAL_SURFACE ( 'NONE', #197, 76.20000000000000300 ) ;
#171 = EDGE_LOOP ( 'NONE', ( #49, #141 ) ) ;
#172 = ORIENTED_EDGE ( 'NONE', *, *, #107, .T. ) ;
#173 = AXIS2_PLACEMENT_3D ( 'NONE', #81, #98, #128 ) ;
#174 = CIRCLE ( 'NONE', #30, 76.20000000000000300 ) ;
#175 = FACE_OUTER_BOUND ( 'NONE', #64, .T. ) ;
#176 = CARTESIAN_POINT ( 'NONE',  ( 85.62500000000000000, 0.0000000000000000000, -2.000000000000000000 ) ) ;
#177 = DIRECTION ( 'NONE',  ( 1.000000000000000000, 0.0000000000000000000, 0.0000000000000000000 ) ) ;
#178 = LINE ( 'NONE', #156, #193 ) ;
#179 = LINE ( 'NONE', #192, #213 ) ;
#180 = DIRECTION ( 'NONE',  ( 0.0000000000000000000, 0.0000000000000000000, 1.000000000000000000 ) ) ;
#181 = DIRECTION ( 'NONE',  ( 0.0000000000000000000, 0.0000000000000000000, 1.000000000000000000 ) ) ;
#182 = CARTESIAN_POINT ( 'NONE',  ( -85.62500000000000000, 1.048603821769921300E-014, -2.000000000000000000 ) ) ;
#183 = VECTOR ( 'NONE', #164, 1000.000000000000000 ) ;
#184 = CYLINDRICAL_SURFACE ( 'NONE', #133, 76.20000000000000300 ) ;
#185 = ORIENTED_EDGE ( 'NONE', *, *, #24, .F. ) ;
#186 = AXIS2_PLACEMENT_3D ( 'NONE', #144, #142, #140 ) ;
#187 = SURFACE_STYLE_FILL_AREA ( #138 ) ;
#188 = DIRECTION ( 'NONE',  ( 1.000000000000000000, 0.0000000000000000000, 0.0000000000000000000 ) ) ;
#189 = DIRECTION ( 'NONE',  ( 1.000000000000000000, 0.0000000000000000000, 0.0000000000000000000 ) ) ;
#190 = ORIENTED_EDGE ( 'NONE', *, *, #119, .F. ) ;
#191 = PRODUCT_DEFINITION_FORMATION_WITH_SPECIFIED_SOURCE ( 'ANY', '', #145, .NOT_KNOWN. ) ;
#192 = CARTESIAN_POINT ( 'NONE',  ( 76.20000000000000300, 0.0000000000000000000, -2.000000000000000000 ) ) ;
#193 = VECTOR ( 'NONE', #32, 1000.000000000000000 ) ;
#194 = CARTESIAN_POINT ( 'NONE',  ( 0.0000000000000000000, 0.0000000000000000000, -2.000000000000000000 ) ) ;
#195 = EDGE_CURVE ( 'NONE', #88, #28, #162, .T. ) ;
#196 = DIRECTION ( 'NONE',  ( 1.000000000000000000, 0.0000000000000000000, 0.0000000000000000000 ) ) ;
#197 = AXIS2_PLACEMENT_3D ( 'NONE', #194, #180, #189 ) ;
#198 = PRODUCT_DEFINITION_SHAPE ( 'NONE', 'NONE',  #160 ) ;
#199 = PRODUCT_DEFINITION_CONTEXT ( 'detailed design', #33, 'design' ) ;
#200 = CIRCLE ( 'NONE', #165, 76.20000000000000300 ) ;
#201 = DIRECTION ( 'NONE',  ( 0.0000000000000000000, 0.0000000000000000000, 1.000000000000000000 ) ) ;
#202 = CARTESIAN_POINT ( 'NONE',  ( 0.0000000000000000000, 0.0000000000000000000, -2.000000000000000000 ) ) ;
#203 = SURFACE_STYLE_FILL_AREA ( #11 ) ;
#204 = DIRECTION ( 'NONE',  ( 1.000000000000000000, 0.0000000000000000000, 0.0000000000000000000 ) ) ;
#205 = CARTESIAN_POINT ( 'NONE',  ( 85.62500000000000000, 0.0000000000000000000, -2.000000000000000000 ) ) ;
#206 = PRESENTATION_LAYER_ASSIGNMENT (  '', '', ( #101 ) ) ;
#207 = PRESENTATION_STYLE_ASSIGNMENT (( #9 ) ) ;
#208 = AXIS2_PLACEMENT_3D ( 'NONE', #125, #59, #188 ) ;
#209 = CIRCLE ( 'NONE', #132, 85.62500000000000000 ) ;
#210 = SURFACE_STYLE_USAGE ( .BOTH. , #61 ) ;
#211 = MECHANICAL_DESIGN_GEOMETRIC_PRESENTATION_REPRESENTATION (  '', ( #147 ), #137 ) ;
#212 = COLOUR_RGB ( '',0.7529411764705882200, 0.7529411764705882200, 0.7529411764705882200 ) ;
#213 = VECTOR ( 'NONE', #31, 1000.000000000000000 ) ;
#214 = FACE_BOUND ( 'NONE', #127, .T. ) ;
ENDSEC;
END-ISO-10303-21;
