ISO-10303-21;
HEADER;
FILE_DESCRIPTION (( 'STEP AP214' ),
    '1' );
FILE_NAME ('306DOR100-S1.step',
    '2017-07-07T05:02:24',
    ( 'install' ),
    ( '' ),
    'SwSTEP 2.0',
    'SolidWorks 2015',
    '' );
FILE_SCHEMA (( 'AUTOMOTIVE_DESIGN' ));
ENDSEC;

DATA;
#1 = PRODUCT ( '306DOR100-S1', '306DOR100-S1', '', ( #4 ) ) ;
#2 = ORIENTED_EDGE ( 'NONE', *, *, #148, .F. ) ;
#3 = AXIS2_PLACEMENT_3D ( 'NONE', #109, #30, #96 ) ;
#4 = PRODUCT_CONTEXT ( 'NONE', #27, 'mechanical' ) ;
#5 = FACE_OUTER_BOUND ( 'NONE', #69, .T. ) ;
#6 = ORIENTED_EDGE ( 'NONE', *, *, #52, .F. ) ;
#7 = ADVANCED_BREP_SHAPE_REPRESENTATION ( '306DOR100-S1', ( #34, #146 ), #83 ) ;
#8 = DIRECTION ( 'NONE',  ( 0.0000000000000000000, 0.0000000000000000000, 1.000000000000000000 ) ) ;
#9 = EDGE_CURVE ( 'NONE', #99, #48, #116, .T. ) ;
#10 = CARTESIAN_POINT ( 'NONE',  ( -58.82999999999999800, 0.0000000000000000000, 0.0000000000000000000 ) ) ;
#11 = SURFACE_SIDE_STYLE ('',( #62 ) ) ;
#12 = PRODUCT_RELATED_PRODUCT_CATEGORY ( 'part', '', ( #1 ) ) ;
#13 = DIRECTION ( 'NONE',  ( 0.0000000000000000000, 0.0000000000000000000, -1.000000000000000000 ) ) ;
#14 = TOROIDAL_SURFACE ( 'NONE', #36, 56.16499999999999900, 2.665000000000001800 ) ;
#15 = SURFACE_STYLE_USAGE ( .BOTH. , #11 ) ;
#16 = AXIS2_PLACEMENT_3D ( 'NONE', #90, #67, #59 ) ;
#17 = ORIENTED_EDGE ( 'NONE', *, *, #47, .T. ) ;
#18 = DIRECTION ( 'NONE',  ( -0.0000000000000000000, -0.0000000000000000000, -1.000000000000000000 ) ) ;
#19 = AXIS2_PLACEMENT_3D ( 'NONE', #81, #141, #154 ) ;
#20 =( NAMED_UNIT ( * ) SI_UNIT ( $, .STERADIAN. ) SOLID_ANGLE_UNIT ( ) );
#21 = FILL_AREA_STYLE_COLOUR ( '', #88 ) ;
#22 = CIRCLE ( 'NONE', #3, 53.50000000000000000 ) ;
#23 = DIRECTION ( 'NONE',  ( 1.000000000000000000, 0.0000000000000000000, 0.0000000000000000000 ) ) ;
#24 =( NAMED_UNIT ( * ) PLANE_ANGLE_UNIT ( ) SI_UNIT ( $, .RADIAN. ) );
#25 = AXIS2_PLACEMENT_3D ( 'NONE', #129, #76, #55 ) ;
#26 = DIRECTION ( 'NONE',  ( -0.0000000000000000000, -0.0000000000000000000, -1.000000000000000000 ) ) ;
#27 = APPLICATION_CONTEXT ( 'automotive_design' ) ;
#28 =( LENGTH_UNIT ( ) NAMED_UNIT ( * ) SI_UNIT ( .MILLI., .METRE. ) );
#29 = PRESENTATION_STYLE_ASSIGNMENT (( #15 ) ) ;
#30 = DIRECTION ( 'NONE',  ( -0.0000000000000000000, -0.0000000000000000000, -1.000000000000000000 ) ) ;
#31 = ORIENTED_EDGE ( 'NONE', *, *, #68, .F. ) ;
#32 =( LENGTH_UNIT ( ) NAMED_UNIT ( * ) SI_UNIT ( .MILLI., .METRE. ) );
#33 = PRODUCT_DEFINITION_FORMATION_WITH_SPECIFIED_SOURCE ( 'ANY', '', #1, .NOT_KNOWN. ) ;
#34 = MANIFOLD_SOLID_BREP ( 'Rotation1', #140 ) ;
#35 = ORIENTED_EDGE ( 'NONE', *, *, #68, .T. ) ;
#36 = AXIS2_PLACEMENT_3D ( 'NONE', #120, #155, #138 ) ;
#37 = EDGE_CURVE ( 'NONE', #48, #99, #105, .T. ) ;
#38 = CARTESIAN_POINT ( 'NONE',  ( 0.0000000000000000000, 0.0000000000000000000, 0.0000000000000000000 ) ) ;
#39 = EDGE_LOOP ( 'NONE', ( #91, #114, #126, #35 ) ) ;
#40 = CARTESIAN_POINT ( 'NONE',  ( 56.16499999999999900, 6.878228747411109200E-015, 0.0000000000000000000 ) ) ;
#41 = PRODUCT_DEFINITION_CONTEXT ( 'detailed design', #51, 'design' ) ;
#42 = DIRECTION ( 'NONE',  ( -1.224646799147353200E-016, 1.000000000000000000, 0.0000000000000000000 ) ) ;
#43 = ORIENTED_EDGE ( 'NONE', *, *, #147, .F. ) ;
#44 = AXIS2_PLACEMENT_3D ( 'NONE', #38, #18, #128 ) ;
#45 = SURFACE_SIDE_STYLE ('',( #144 ) ) ;
#46 = CIRCLE ( 'NONE', #54, 2.665000000000000900 ) ;
#47 = EDGE_CURVE ( 'NONE', #151, #74, #22, .T. ) ;
#48 = VERTEX_POINT ( 'NONE', #143 ) ;
#49 = APPLICATION_PROTOCOL_DEFINITION ( 'draft international standard', 'automotive_design', 1998, #27 ) ;
#50 = FACE_OUTER_BOUND ( 'NONE', #39, .T. ) ;
#51 = APPLICATION_CONTEXT ( 'automotive_design' ) ;
#52 = EDGE_CURVE ( 'NONE', #74, #151, #82, .T. ) ;
#53 = CARTESIAN_POINT ( 'NONE',  ( 53.50000000000000000, 6.551860375438339100E-015, 0.0000000000000000000 ) ) ;
#54 = AXIS2_PLACEMENT_3D ( 'NONE', #40, #115, #64 ) ;
#55 = DIRECTION ( 'NONE',  ( 0.0000000000000000000, 0.0000000000000000000, -1.000000000000000000 ) ) ;
#56 = CARTESIAN_POINT ( 'NONE',  ( 0.0000000000000000000, 0.0000000000000000000, 0.0000000000000000000 ) ) ;
#57 = ADVANCED_FACE ( 'NONE', ( #50 ), #14, .T. ) ;
#58 = DIRECTION ( 'NONE',  ( -1.000000000000000000, 0.0000000000000000000, 0.0000000000000000000 ) ) ;
#59 = DIRECTION ( 'NONE',  ( -1.000000000000000000, 0.0000000000000000000, 0.0000000000000000000 ) ) ;
#60 = AXIS2_PLACEMENT_3D ( 'NONE', #152, #86, #13 ) ;
#61 = UNCERTAINTY_MEASURE_WITH_UNIT (LENGTH_MEASURE( 1.000000000000000100E-005 ), #32, 'distance_accuracy_value', 'NONE');
#62 = SURFACE_STYLE_FILL_AREA ( #87 ) ;
#63 = EDGE_LOOP ( 'NONE', ( #2, #121, #92, #6 ) ) ;
#64 = DIRECTION ( 'NONE',  ( -1.000000000000000000, -1.224646799147354400E-016, 0.0000000000000000000 ) ) ;
#65 = ADVANCED_FACE ( 'NONE', ( #78 ), #101, .T. ) ;
#66 = CARTESIAN_POINT ( 'NONE',  ( 0.0000000000000000000, 0.0000000000000000000, 0.0000000000000000000 ) ) ;
#67 = DIRECTION ( 'NONE',  ( -0.0000000000000000000, -0.0000000000000000000, -1.000000000000000000 ) ) ;
#68 = EDGE_CURVE ( 'NONE', #151, #99, #137, .T. ) ;
#69 = EDGE_LOOP ( 'NONE', ( #156, #31, #17, #73 ) ) ;
#70 = CARTESIAN_POINT ( 'NONE',  ( 0.0000000000000000000, 0.0000000000000000000, 0.0000000000000000000 ) ) ;
#71 = AXIS2_PLACEMENT_3D ( 'NONE', #103, #150, #79 ) ;
#72 = EDGE_CURVE ( 'NONE', #74, #48, #46, .T. ) ;
#73 = ORIENTED_EDGE ( 'NONE', *, *, #72, .T. ) ;
#74 = VERTEX_POINT ( 'NONE', #53 ) ;
#75 = AXIS2_PLACEMENT_3D ( 'NONE', #106, #42, #118 ) ;
#76 = DIRECTION ( 'NONE',  ( 0.0000000000000000000, -1.000000000000000000, 0.0000000000000000000 ) ) ;
#77 = FILL_AREA_STYLE_COLOUR ( '', #94 ) ;
#78 = FACE_OUTER_BOUND ( 'NONE', #63, .T. ) ;
#79 = DIRECTION ( 'NONE',  ( -1.000000000000000000, 0.0000000000000000000, 0.0000000000000000000 ) ) ;
#80 = PRESENTATION_STYLE_ASSIGNMENT (( #111 ) ) ;
#81 = CARTESIAN_POINT ( 'NONE',  ( 0.0000000000000000000, 0.0000000000000000000, 3.263683719727698600E-016 ) ) ;
#82 = CIRCLE ( 'NONE', #19, 53.50000000000000000 ) ;
#83 =( GEOMETRIC_REPRESENTATION_CONTEXT ( 3 ) GLOBAL_UNCERTAINTY_ASSIGNED_CONTEXT ( ( #145 ) ) GLOBAL_UNIT_ASSIGNED_CONTEXT ( ( #104, #93, #84 ) ) REPRESENTATION_CONTEXT ( 'NONE', 'WORKASPACE' ) );
#84 =( NAMED_UNIT ( * ) SI_UNIT ( $, .STERADIAN. ) SOLID_ANGLE_UNIT ( ) );
#85 = PRODUCT_DEFINITION_SHAPE ( 'NONE', 'NONE',  #157 ) ;
#86 = DIRECTION ( 'NONE',  ( 0.0000000000000000000, -1.000000000000000000, 0.0000000000000000000 ) ) ;
#87 = FILL_AREA_STYLE ('',( #77 ) ) ;
#88 = COLOUR_RGB ( '',0.3843137254901960500, 0.3843137254901960500, 0.3843137254901960500 ) ;
#89 = AXIS2_PLACEMENT_3D ( 'NONE', #56, #26, #113 ) ;
#90 = CARTESIAN_POINT ( 'NONE',  ( 0.0000000000000000000, 0.0000000000000000000, 0.0000000000000000000 ) ) ;
#91 = ORIENTED_EDGE ( 'NONE', *, *, #37, .F. ) ;
#92 = ORIENTED_EDGE ( 'NONE', *, *, #147, .T. ) ;
#93 =( NAMED_UNIT ( * ) PLANE_ANGLE_UNIT ( ) SI_UNIT ( $, .RADIAN. ) );
#94 = COLOUR_RGB ( '',0.3843137254901960500, 0.3843137254901960500, 0.3843137254901960500 ) ;
#95 = EDGE_LOOP ( 'NONE', ( #43, #123, #134, #131 ) ) ;
#96 = DIRECTION ( 'NONE',  ( -1.000000000000000000, 0.0000000000000000000, 0.0000000000000000000 ) ) ;
#97 =( NAMED_UNIT ( * ) PLANE_ANGLE_UNIT ( ) SI_UNIT ( $, .RADIAN. ) );
#98 = CIRCLE ( 'NONE', #75, 2.665000000000000900 ) ;
#99 = VERTEX_POINT ( 'NONE', #10 ) ;
#100 = STYLED_ITEM ( 'NONE', ( #29 ), #7 ) ;
#101 = TOROIDAL_SURFACE ( 'NONE', #44, 56.16499999999999900, 2.665000000000001800 ) ;
#102 =( NAMED_UNIT ( * ) SI_UNIT ( $, .STERADIAN. ) SOLID_ANGLE_UNIT ( ) );
#103 = CARTESIAN_POINT ( 'NONE',  ( 0.0000000000000000000, 0.0000000000000000000, 0.0000000000000000000 ) ) ;
#104 =( LENGTH_UNIT ( ) NAMED_UNIT ( * ) SI_UNIT ( .MILLI., .METRE. ) );
#105 = CIRCLE ( 'NONE', #149, 58.82999999999999800 ) ;
#106 = CARTESIAN_POINT ( 'NONE',  ( 56.16499999999999900, 6.878228747411109200E-015, 0.0000000000000000000 ) ) ;
#107 = ADVANCED_FACE ( 'NONE', ( #5 ), #133, .T. ) ;
#108 = SHAPE_DEFINITION_REPRESENTATION ( #85, #7 ) ;
#109 = CARTESIAN_POINT ( 'NONE',  ( 0.0000000000000000000, 0.0000000000000000000, 3.263683719727698600E-016 ) ) ;
#110 = APPLICATION_PROTOCOL_DEFINITION ( 'draft international standard', 'automotive_design', 1998, #51 ) ;
#111 = SURFACE_STYLE_USAGE ( .BOTH. , #45 ) ;
#112 = PRESENTATION_LAYER_ASSIGNMENT (  '', '', ( #100 ) ) ;
#113 = DIRECTION ( 'NONE',  ( -1.000000000000000000, 0.0000000000000000000, 0.0000000000000000000 ) ) ;
#114 = ORIENTED_EDGE ( 'NONE', *, *, #72, .F. ) ;
#115 = DIRECTION ( 'NONE',  ( -1.224646799147353200E-016, 1.000000000000000000, 0.0000000000000000000 ) ) ;
#116 = CIRCLE ( 'NONE', #16, 58.82999999999999800 ) ;
#117 = MECHANICAL_DESIGN_GEOMETRIC_PRESENTATION_REPRESENTATION (  '', ( #100 ), #124 ) ;
#118 = DIRECTION ( 'NONE',  ( -1.000000000000000000, -1.224646799147354400E-016, 0.0000000000000000000 ) ) ;
#119 = STYLED_ITEM ( 'NONE', ( #80 ), #34 ) ;
#120 = CARTESIAN_POINT ( 'NONE',  ( 0.0000000000000000000, 0.0000000000000000000, 0.0000000000000000000 ) ) ;
#121 = ORIENTED_EDGE ( 'NONE', *, *, #37, .T. ) ;
#122 = FILL_AREA_STYLE ('',( #21 ) ) ;
#123 = ORIENTED_EDGE ( 'NONE', *, *, #9, .T. ) ;
#124 =( GEOMETRIC_REPRESENTATION_CONTEXT ( 3 ) GLOBAL_UNCERTAINTY_ASSIGNED_CONTEXT ( ( #135 ) ) GLOBAL_UNIT_ASSIGNED_CONTEXT ( ( #28, #24, #102 ) ) REPRESENTATION_CONTEXT ( 'NONE', 'WORKASPACE' ) );
#125 = FACE_OUTER_BOUND ( 'NONE', #95, .T. ) ;
#126 = ORIENTED_EDGE ( 'NONE', *, *, #52, .T. ) ;
#127 = PRESENTATION_LAYER_ASSIGNMENT (  '', '', ( #119 ) ) ;
#128 = DIRECTION ( 'NONE',  ( -1.000000000000000000, 0.0000000000000000000, 0.0000000000000000000 ) ) ;
#129 = CARTESIAN_POINT ( 'NONE',  ( -56.16499999999999900, 0.0000000000000000000, 0.0000000000000000000 ) ) ;
#130 = CIRCLE ( 'NONE', #60, 2.665000000000001800 ) ;
#131 = ORIENTED_EDGE ( 'NONE', *, *, #47, .F. ) ;
#132 = DIRECTION ( 'NONE',  ( -0.0000000000000000000, -0.0000000000000000000, -1.000000000000000000 ) ) ;
#133 = TOROIDAL_SURFACE ( 'NONE', #71, 56.16499999999999900, 2.665000000000001800 ) ;
#134 = ORIENTED_EDGE ( 'NONE', *, *, #148, .T. ) ;
#135 = UNCERTAINTY_MEASURE_WITH_UNIT (LENGTH_MEASURE( 1.000000000000000100E-005 ), #28, 'distance_accuracy_value', 'NONE');
#136 = MECHANICAL_DESIGN_GEOMETRIC_PRESENTATION_REPRESENTATION (  '', ( #119 ), #142 ) ;
#137 = CIRCLE ( 'NONE', #25, 2.665000000000001800 ) ;
#138 = DIRECTION ( 'NONE',  ( -1.000000000000000000, 0.0000000000000000000, 0.0000000000000000000 ) ) ;
#139 = CARTESIAN_POINT ( 'NONE',  ( -53.50000000000000000, 0.0000000000000000000, 3.263683719727700000E-016 ) ) ;
#140 = CLOSED_SHELL ( 'NONE', ( #65, #153, #107, #57 ) ) ;
#141 = DIRECTION ( 'NONE',  ( -0.0000000000000000000, -0.0000000000000000000, -1.000000000000000000 ) ) ;
#142 =( GEOMETRIC_REPRESENTATION_CONTEXT ( 3 ) GLOBAL_UNCERTAINTY_ASSIGNED_CONTEXT ( ( #61 ) ) GLOBAL_UNIT_ASSIGNED_CONTEXT ( ( #32, #97, #20 ) ) REPRESENTATION_CONTEXT ( 'NONE', 'WORKASPACE' ) );
#143 = CARTESIAN_POINT ( 'NONE',  ( 58.82999999999999800, 7.204597119383878400E-015, 0.0000000000000000000 ) ) ;
#144 = SURFACE_STYLE_FILL_AREA ( #122 ) ;
#145 = UNCERTAINTY_MEASURE_WITH_UNIT (LENGTH_MEASURE( 1.000000000000000100E-005 ), #104, 'distance_accuracy_value', 'NONE');
#146 = AXIS2_PLACEMENT_3D ( 'NONE', #66, #8, #23 ) ;
#147 = EDGE_CURVE ( 'NONE', #99, #151, #130, .T. ) ;
#148 = EDGE_CURVE ( 'NONE', #48, #74, #98, .T. ) ;
#149 = AXIS2_PLACEMENT_3D ( 'NONE', #70, #132, #58 ) ;
#150 = DIRECTION ( 'NONE',  ( -0.0000000000000000000, -0.0000000000000000000, -1.000000000000000000 ) ) ;
#151 = VERTEX_POINT ( 'NONE', #139 ) ;
#152 = CARTESIAN_POINT ( 'NONE',  ( -56.16499999999999900, 0.0000000000000000000, 0.0000000000000000000 ) ) ;
#153 = ADVANCED_FACE ( 'NONE', ( #125 ), #158, .T. ) ;
#154 = DIRECTION ( 'NONE',  ( -1.000000000000000000, 0.0000000000000000000, 0.0000000000000000000 ) ) ;
#155 = DIRECTION ( 'NONE',  ( -0.0000000000000000000, -0.0000000000000000000, -1.000000000000000000 ) ) ;
#156 = ORIENTED_EDGE ( 'NONE', *, *, #9, .F. ) ;
#157 = PRODUCT_DEFINITION ( 'UNKNOWN', '', #33, #41 ) ;
#158 = TOROIDAL_SURFACE ( 'NONE', #89, 56.16499999999999900, 2.665000000000001800 ) ;
ENDSEC;
END-ISO-10303-21;
