ISO-10303-21;
HEADER;
FILE_DESCRIPTION (( 'STEP AP214' ),
    '1' );
FILE_NAME ('303DOR063-S1.step',
    '2017-07-07T05:03:27',
    ( 'install' ),
    ( '' ),
    'SwSTEP 2.0',
    'SolidWorks 2015',
    '' );
FILE_SCHEMA (( 'AUTOMOTIVE_DESIGN' ));
ENDSEC;

DATA;
#1 = AXIS2_PLACEMENT_3D ( 'NONE', #42, #54, #39 ) ;
#2 = MANIFOLD_SOLID_BREP ( 'Rotation1', #135 ) ;
#3 = FACE_OUTER_BOUND ( 'NONE', #60, .T. ) ;
#4 = ORIENTED_EDGE ( 'NONE', *, *, #19, .T. ) ;
#5 = AXIS2_PLACEMENT_3D ( 'NONE', #25, #70, #74 ) ;
#6 = CARTESIAN_POINT ( 'NONE',  ( 43.32999999999999800, 5.306394580705481300E-015, 0.0000000000000000000 ) ) ;
#7 = CARTESIAN_POINT ( 'NONE',  ( 0.0000000000000000000, 0.0000000000000000000, 0.0000000000000000000 ) ) ;
#8 = STYLED_ITEM ( 'NONE', ( #137 ), #102 ) ;
#9 = DIRECTION ( 'NONE',  ( -1.000000000000000000, 0.0000000000000000000, 0.0000000000000000000 ) ) ;
#10 = AXIS2_PLACEMENT_3D ( 'NONE', #52, #98, #53 ) ;
#11 = ADVANCED_FACE ( 'NONE', ( #50 ), #86, .T. ) ;
#12 = ADVANCED_FACE ( 'NONE', ( #3 ), #45, .T. ) ;
#13 = PRODUCT_CONTEXT ( 'NONE', #103, 'mechanical' ) ;
#14 = AXIS2_PLACEMENT_3D ( 'NONE', #93, #153, #152 ) ;
#15 = DIRECTION ( 'NONE',  ( 0.0000000000000000000, -1.000000000000000000, 0.0000000000000000000 ) ) ;
#16 = TOROIDAL_SURFACE ( 'NONE', #10, 40.66499999999999900, 2.665000000000000900 ) ;
#17 = AXIS2_PLACEMENT_3D ( 'NONE', #84, #89, #73 ) ;
#18 = AXIS2_PLACEMENT_3D ( 'NONE', #7, #90, #22 ) ;
#19 = EDGE_CURVE ( 'NONE', #26, #136, #92, .T. ) ;
#20 = CARTESIAN_POINT ( 'NONE',  ( -40.66499999999999900, 0.0000000000000000000, 0.0000000000000000000 ) ) ;
#21 = AXIS2_PLACEMENT_3D ( 'NONE', #68, #88, #83 ) ;
#22 = DIRECTION ( 'NONE',  ( -1.000000000000000000, 0.0000000000000000000, 0.0000000000000000000 ) ) ;
#23 = TOROIDAL_SURFACE ( 'NONE', #18, 40.66499999999999900, 2.665000000000000900 ) ;
#24 = ADVANCED_FACE ( 'NONE', ( #46 ), #23, .T. ) ;
#25 = CARTESIAN_POINT ( 'NONE',  ( 0.0000000000000000000, 0.0000000000000000000, 0.0000000000000000000 ) ) ;
#26 = VERTEX_POINT ( 'NONE', #55 ) ;
#27 = AXIS2_PLACEMENT_3D ( 'NONE', #140, #139, #128 ) ;
#28 = APPLICATION_PROTOCOL_DEFINITION ( 'draft international standard', 'automotive_design', 1998, #104 ) ;
#29 = AXIS2_PLACEMENT_3D ( 'NONE', #130, #113, #9 ) ;
#30 = CIRCLE ( 'NONE', #21, 2.665000000000000900 ) ;
#31 = EDGE_CURVE ( 'NONE', #136, #26, #142, .T. ) ;
#32 = AXIS2_PLACEMENT_3D ( 'NONE', #127, #154, #115 ) ;
#33 =( GEOMETRIC_REPRESENTATION_CONTEXT ( 3 ) GLOBAL_UNCERTAINTY_ASSIGNED_CONTEXT ( ( #134 ) ) GLOBAL_UNIT_ASSIGNED_CONTEXT ( ( #78, #58, #150 ) ) REPRESENTATION_CONTEXT ( 'NONE', 'WORKASPACE' ) );
#34 = PRODUCT_DEFINITION ( 'UNKNOWN', '', #51, #75 ) ;
#35 = CARTESIAN_POINT ( 'NONE',  ( 0.0000000000000000000, 0.0000000000000000000, 3.263683719727697600E-016 ) ) ;
#36 = AXIS2_PLACEMENT_3D ( 'NONE', #35, #62, #43 ) ;
#37 = FACE_OUTER_BOUND ( 'NONE', #146, .T. ) ;
#38 = COLOUR_RGB ( '',0.3843137254901960500, 0.3843137254901960500, 0.3843137254901960500 ) ;
#39 = DIRECTION ( 'NONE',  ( -1.000000000000000000, 0.0000000000000000000, 0.0000000000000000000 ) ) ;
#40 = ADVANCED_FACE ( 'NONE', ( #37 ), #16, .T. ) ;
#41 = FILL_AREA_STYLE ('',( #112 ) ) ;
#42 = CARTESIAN_POINT ( 'NONE',  ( 0.0000000000000000000, 0.0000000000000000000, 0.0000000000000000000 ) ) ;
#43 = DIRECTION ( 'NONE',  ( -1.000000000000000000, 0.0000000000000000000, 0.0000000000000000000 ) ) ;
#44 =( NAMED_UNIT ( * ) SI_UNIT ( $, .STERADIAN. ) SOLID_ANGLE_UNIT ( ) );
#45 = TOROIDAL_SURFACE ( 'NONE', #29, 40.66499999999999900, 2.665000000000000900 ) ;
#46 = FACE_OUTER_BOUND ( 'NONE', #133, .T. ) ;
#47 =( GEOMETRIC_REPRESENTATION_CONTEXT ( 3 ) GLOBAL_UNCERTAINTY_ASSIGNED_CONTEXT ( ( #57 ) ) GLOBAL_UNIT_ASSIGNED_CONTEXT ( ( #148, #147, #149 ) ) REPRESENTATION_CONTEXT ( 'NONE', 'WORKASPACE' ) );
#48 = EDGE_CURVE ( 'NONE', #26, #94, #156, .T. ) ;
#49 = CIRCLE ( 'NONE', #69, 2.665000000000000900 ) ;
#50 = FACE_OUTER_BOUND ( 'NONE', #126, .T. ) ;
#51 = PRODUCT_DEFINITION_FORMATION_WITH_SPECIFIED_SOURCE ( 'ANY', '', #95, .NOT_KNOWN. ) ;
#52 = CARTESIAN_POINT ( 'NONE',  ( 0.0000000000000000000, 0.0000000000000000000, 0.0000000000000000000 ) ) ;
#53 = DIRECTION ( 'NONE',  ( -1.000000000000000000, 0.0000000000000000000, 0.0000000000000000000 ) ) ;
#54 = DIRECTION ( 'NONE',  ( -0.0000000000000000000, -0.0000000000000000000, -1.000000000000000000 ) ) ;
#55 = CARTESIAN_POINT ( 'NONE',  ( 38.00000000000000000, 4.653657836759941900E-015, 0.0000000000000000000 ) ) ;
#56 = MECHANICAL_DESIGN_GEOMETRIC_PRESENTATION_REPRESENTATION (  '', ( #63 ), #47 ) ;
#57 = UNCERTAINTY_MEASURE_WITH_UNIT (LENGTH_MEASURE( 1.000000000000000100E-005 ), #148, 'distance_accuracy_value', 'NONE');
#58 =( NAMED_UNIT ( * ) PLANE_ANGLE_UNIT ( ) SI_UNIT ( $, .RADIAN. ) );
#59 = EDGE_CURVE ( 'NONE', #94, #101, #97, .T. ) ;
#60 = EDGE_LOOP ( 'NONE', ( #141, #107, #122, #120 ) ) ;
#61 = CARTESIAN_POINT ( 'NONE',  ( -43.32999999999999800, 0.0000000000000000000, 0.0000000000000000000 ) ) ;
#62 = DIRECTION ( 'NONE',  ( -0.0000000000000000000, -0.0000000000000000000, -1.000000000000000000 ) ) ;
#63 = STYLED_ITEM ( 'NONE', ( #125 ), #2 ) ;
#64 = MECHANICAL_DESIGN_GEOMETRIC_PRESENTATION_REPRESENTATION (  '', ( #8 ), #65 ) ;
#65 =( GEOMETRIC_REPRESENTATION_CONTEXT ( 3 ) GLOBAL_UNCERTAINTY_ASSIGNED_CONTEXT ( ( #67 ) ) GLOBAL_UNIT_ASSIGNED_CONTEXT ( ( #132, #106, #44 ) ) REPRESENTATION_CONTEXT ( 'NONE', 'WORKASPACE' ) );
#66 = PRESENTATION_LAYER_ASSIGNMENT (  '', '', ( #63 ) ) ;
#67 = UNCERTAINTY_MEASURE_WITH_UNIT (LENGTH_MEASURE( 1.000000000000000100E-005 ), #132, 'distance_accuracy_value', 'NONE');
#68 = CARTESIAN_POINT ( 'NONE',  ( 40.66499999999999900, 4.980026208732712000E-015, 0.0000000000000000000 ) ) ;
#69 = AXIS2_PLACEMENT_3D ( 'NONE', #20, #15, #80 ) ;
#70 = DIRECTION ( 'NONE',  ( -0.0000000000000000000, -0.0000000000000000000, -1.000000000000000000 ) ) ;
#71 = CARTESIAN_POINT ( 'NONE',  ( -38.00000000000000000, 0.0000000000000000000, 3.263683719727698600E-016 ) ) ;
#72 = SURFACE_SIDE_STYLE ('',( #79 ) ) ;
#73 = DIRECTION ( 'NONE',  ( -1.000000000000000000, -1.224646799147354400E-016, 0.0000000000000000000 ) ) ;
#74 = DIRECTION ( 'NONE',  ( -1.000000000000000000, 0.0000000000000000000, 0.0000000000000000000 ) ) ;
#75 = PRODUCT_DEFINITION_CONTEXT ( 'detailed design', #104, 'design' ) ;
#76 = CIRCLE ( 'NONE', #1, 43.32999999999999800 ) ;
#77 = ORIENTED_EDGE ( 'NONE', *, *, #109, .T. ) ;
#78 =( LENGTH_UNIT ( ) NAMED_UNIT ( * ) SI_UNIT ( .MILLI., .METRE. ) );
#79 = SURFACE_STYLE_FILL_AREA ( #99 ) ;
#80 = DIRECTION ( 'NONE',  ( 0.0000000000000000000, 0.0000000000000000000, -1.000000000000000000 ) ) ;
#81 = ORIENTED_EDGE ( 'NONE', *, *, #105, .T. ) ;
#82 = ORIENTED_EDGE ( 'NONE', *, *, #129, .F. ) ;
#83 = DIRECTION ( 'NONE',  ( -1.000000000000000000, -1.224646799147354400E-016, 0.0000000000000000000 ) ) ;
#84 = CARTESIAN_POINT ( 'NONE',  ( 40.66499999999999900, 4.980026208732712000E-015, 0.0000000000000000000 ) ) ;
#85 = ORIENTED_EDGE ( 'NONE', *, *, #105, .F. ) ;
#86 = TOROIDAL_SURFACE ( 'NONE', #32, 40.66499999999999900, 2.665000000000000900 ) ;
#87 = CARTESIAN_POINT ( 'NONE',  ( 0.0000000000000000000, 0.0000000000000000000, 0.0000000000000000000 ) ) ;
#88 = DIRECTION ( 'NONE',  ( -1.224646799147353200E-016, 1.000000000000000000, 0.0000000000000000000 ) ) ;
#89 = DIRECTION ( 'NONE',  ( -1.224646799147353200E-016, 1.000000000000000000, 0.0000000000000000000 ) ) ;
#90 = DIRECTION ( 'NONE',  ( -0.0000000000000000000, -0.0000000000000000000, -1.000000000000000000 ) ) ;
#91 = APPLICATION_PROTOCOL_DEFINITION ( 'draft international standard', 'automotive_design', 1998, #103 ) ;
#92 = CIRCLE ( 'NONE', #36, 38.00000000000000000 ) ;
#93 = CARTESIAN_POINT ( 'NONE',  ( -40.66499999999999900, 0.0000000000000000000, 0.0000000000000000000 ) ) ;
#94 = VERTEX_POINT ( 'NONE', #6 ) ;
#95 = PRODUCT ( '303DOR063-S1', '303DOR063-S1', '', ( #13 ) ) ;
#96 = ORIENTED_EDGE ( 'NONE', *, *, #118, .F. ) ;
#97 = CIRCLE ( 'NONE', #5, 43.32999999999999800 ) ;
#98 = DIRECTION ( 'NONE',  ( -0.0000000000000000000, -0.0000000000000000000, -1.000000000000000000 ) ) ;
#99 = FILL_AREA_STYLE ('',( #157 ) ) ;
#100 = SURFACE_SIDE_STYLE ('',( #131 ) ) ;
#101 = VERTEX_POINT ( 'NONE', #61 ) ;
#102 = ADVANCED_BREP_SHAPE_REPRESENTATION ( '303DOR063-S1', ( #2, #138 ), #33 ) ;
#103 = APPLICATION_CONTEXT ( 'automotive_design' ) ;
#104 = APPLICATION_CONTEXT ( 'automotive_design' ) ;
#105 = EDGE_CURVE ( 'NONE', #101, #94, #76, .T. ) ;
#106 =( NAMED_UNIT ( * ) PLANE_ANGLE_UNIT ( ) SI_UNIT ( $, .RADIAN. ) );
#107 = ORIENTED_EDGE ( 'NONE', *, *, #59, .T. ) ;
#108 = ORIENTED_EDGE ( 'NONE', *, *, #31, .F. ) ;
#109 = EDGE_CURVE ( 'NONE', #94, #26, #30, .T. ) ;
#110 = ORIENTED_EDGE ( 'NONE', *, *, #59, .F. ) ;
#111 = ORIENTED_EDGE ( 'NONE', *, *, #129, .T. ) ;
#112 = FILL_AREA_STYLE_COLOUR ( '', #144 ) ;
#113 = DIRECTION ( 'NONE',  ( -0.0000000000000000000, -0.0000000000000000000, -1.000000000000000000 ) ) ;
#114 = SHAPE_DEFINITION_REPRESENTATION ( #143, #102 ) ;
#115 = DIRECTION ( 'NONE',  ( -1.000000000000000000, 0.0000000000000000000, 0.0000000000000000000 ) ) ;
#116 = PRODUCT_RELATED_PRODUCT_CATEGORY ( 'part', '', ( #95 ) ) ;
#117 = ORIENTED_EDGE ( 'NONE', *, *, #48, .T. ) ;
#118 = EDGE_CURVE ( 'NONE', #101, #136, #151, .T. ) ;
#119 = ORIENTED_EDGE ( 'NONE', *, *, #31, .T. ) ;
#120 = ORIENTED_EDGE ( 'NONE', *, *, #19, .F. ) ;
#121 = SURFACE_STYLE_USAGE ( .BOTH. , #72 ) ;
#122 = ORIENTED_EDGE ( 'NONE', *, *, #118, .T. ) ;
#123 = PRESENTATION_LAYER_ASSIGNMENT (  '', '', ( #8 ) ) ;
#124 = ORIENTED_EDGE ( 'NONE', *, *, #48, .F. ) ;
#125 = PRESENTATION_STYLE_ASSIGNMENT (( #145 ) ) ;
#126 = EDGE_LOOP ( 'NONE', ( #110, #124, #4, #111 ) ) ;
#127 = CARTESIAN_POINT ( 'NONE',  ( 0.0000000000000000000, 0.0000000000000000000, 0.0000000000000000000 ) ) ;
#128 = DIRECTION ( 'NONE',  ( -1.000000000000000000, 0.0000000000000000000, 0.0000000000000000000 ) ) ;
#129 = EDGE_CURVE ( 'NONE', #136, #101, #49, .T. ) ;
#130 = CARTESIAN_POINT ( 'NONE',  ( 0.0000000000000000000, 0.0000000000000000000, 0.0000000000000000000 ) ) ;
#131 = SURFACE_STYLE_FILL_AREA ( #41 ) ;
#132 =( LENGTH_UNIT ( ) NAMED_UNIT ( * ) SI_UNIT ( .MILLI., .METRE. ) );
#133 = EDGE_LOOP ( 'NONE', ( #96, #81, #77, #108 ) ) ;
#134 = UNCERTAINTY_MEASURE_WITH_UNIT (LENGTH_MEASURE( 1.000000000000000100E-005 ), #78, 'distance_accuracy_value', 'NONE');
#135 = CLOSED_SHELL ( 'NONE', ( #12, #24, #40, #11 ) ) ;
#136 = VERTEX_POINT ( 'NONE', #71 ) ;
#137 = PRESENTATION_STYLE_ASSIGNMENT (( #121 ) ) ;
#138 = AXIS2_PLACEMENT_3D ( 'NONE', #87, #155, #158 ) ;
#139 = DIRECTION ( 'NONE',  ( -0.0000000000000000000, -0.0000000000000000000, -1.000000000000000000 ) ) ;
#140 = CARTESIAN_POINT ( 'NONE',  ( 0.0000000000000000000, 0.0000000000000000000, 3.263683719727697600E-016 ) ) ;
#141 = ORIENTED_EDGE ( 'NONE', *, *, #109, .F. ) ;
#142 = CIRCLE ( 'NONE', #27, 38.00000000000000000 ) ;
#143 = PRODUCT_DEFINITION_SHAPE ( 'NONE', 'NONE',  #34 ) ;
#144 = COLOUR_RGB ( '',0.3843137254901960500, 0.3843137254901960500, 0.3843137254901960500 ) ;
#145 = SURFACE_STYLE_USAGE ( .BOTH. , #100 ) ;
#146 = EDGE_LOOP ( 'NONE', ( #85, #82, #119, #117 ) ) ;
#147 =( NAMED_UNIT ( * ) PLANE_ANGLE_UNIT ( ) SI_UNIT ( $, .RADIAN. ) );
#148 =( LENGTH_UNIT ( ) NAMED_UNIT ( * ) SI_UNIT ( .MILLI., .METRE. ) );
#149 =( NAMED_UNIT ( * ) SI_UNIT ( $, .STERADIAN. ) SOLID_ANGLE_UNIT ( ) );
#150 =( NAMED_UNIT ( * ) SI_UNIT ( $, .STERADIAN. ) SOLID_ANGLE_UNIT ( ) );
#151 = CIRCLE ( 'NONE', #14, 2.665000000000000900 ) ;
#152 = DIRECTION ( 'NONE',  ( 0.0000000000000000000, 0.0000000000000000000, -1.000000000000000000 ) ) ;
#153 = DIRECTION ( 'NONE',  ( 0.0000000000000000000, -1.000000000000000000, 0.0000000000000000000 ) ) ;
#154 = DIRECTION ( 'NONE',  ( -0.0000000000000000000, -0.0000000000000000000, -1.000000000000000000 ) ) ;
#155 = DIRECTION ( 'NONE',  ( 0.0000000000000000000, 0.0000000000000000000, 1.000000000000000000 ) ) ;
#156 = CIRCLE ( 'NONE', #17, 2.665000000000000900 ) ;
#157 = FILL_AREA_STYLE_COLOUR ( '', #38 ) ;
#158 = DIRECTION ( 'NONE',  ( 1.000000000000000000, 0.0000000000000000000, 0.0000000000000000000 ) ) ;
ENDSEC;
END-ISO-10303-21;
