ISO-10303-21;
HEADER;
FILE_DESCRIPTION (( 'STEP AP214' ),
    '1' );
FILE_NAME ('490DFL100-G-S5.stp',
    '2017-10-11T10:18:53',
    ( '' ),
    ( '' ),
    'SwSTEP 2.0',
    'SolidWorks 2015',
    '' );
FILE_SCHEMA (( 'AUTOMOTIVE_DESIGN' ));
ENDSEC;

DATA;
#1 = COLOUR_RGB ( '',0.7254901960784313500, 0.4470588235294117300, 0.3686274509803921800 ) ;
#2 = ORIENTED_EDGE ( 'NONE', *, *, #110, .T. ) ;
#3 = ORIENTED_EDGE ( 'NONE', *, *, #181, .T. ) ;
#4 = EDGE_CURVE ( 'NONE', #197, #149, #170, .T. ) ;
#5 = CARTESIAN_POINT ( 'NONE',  ( 50.79999999999999700, 0.0000000000000000000, -2.000000000000000000 ) ) ;
#6 = PRODUCT_RELATED_PRODUCT_CATEGORY ( 'part', '', ( #210 ) ) ;
#7 = CARTESIAN_POINT ( 'NONE',  ( 0.0000000000000000000, 0.0000000000000000000, 0.0000000000000000000 ) ) ;
#8 = EDGE_LOOP ( 'NONE', ( #2, #198, #134, #142 ) ) ;
#9 = SURFACE_SIDE_STYLE ('',( #60 ) ) ;
#10 = PLANE ( 'NONE',  #115 ) ;
#11 = CARTESIAN_POINT ( 'NONE',  ( 0.0000000000000000000, 0.0000000000000000000, -2.000000000000000000 ) ) ;
#12 = ADVANCED_BREP_SHAPE_REPRESENTATION ( '490DFL100-G-S5', ( #102, #84 ), #212 ) ;
#13 = FACE_OUTER_BOUND ( 'NONE', #92, .T. ) ;
#14 = EDGE_CURVE ( 'NONE', #197, #165, #52, .T. ) ;
#15 = FILL_AREA_STYLE ('',( #123 ) ) ;
#16 = PRESENTATION_STYLE_ASSIGNMENT (( #118 ) ) ;
#17 = ORIENTED_EDGE ( 'NONE', *, *, #4, .F. ) ;
#18 =( NAMED_UNIT ( * ) PLANE_ANGLE_UNIT ( ) SI_UNIT ( $, .RADIAN. ) );
#19 = ORIENTED_EDGE ( 'NONE', *, *, #14, .T. ) ;
#20 = AXIS2_PLACEMENT_3D ( 'NONE', #166, #93, #78 ) ;
#21 = ADVANCED_FACE ( 'NONE', ( #86 ), #200, .T. ) ;
#22 = AXIS2_PLACEMENT_3D ( 'NONE', #155, #79, #107 ) ;
#23 = VERTEX_POINT ( 'NONE', #171 ) ;
#24 = ORIENTED_EDGE ( 'NONE', *, *, #48, .T. ) ;
#25 = EDGE_CURVE ( 'NONE', #165, #197, #29, .T. ) ;
#26 = DIRECTION ( 'NONE',  ( 0.0000000000000000000, 0.0000000000000000000, 1.000000000000000000 ) ) ;
#27 = ADVANCED_FACE ( 'NONE', ( #39 ), #61, .F. ) ;
#28 = DIRECTION ( 'NONE',  ( 1.000000000000000000, 0.0000000000000000000, 0.0000000000000000000 ) ) ;
#29 = CIRCLE ( 'NONE', #202, 50.79999999999999700 ) ;
#30 = DIRECTION ( 'NONE',  ( 0.0000000000000000000, 0.0000000000000000000, 1.000000000000000000 ) ) ;
#31 = DIRECTION ( 'NONE',  ( 1.000000000000000000, 0.0000000000000000000, 0.0000000000000000000 ) ) ;
#32 = ADVANCED_FACE ( 'NONE', ( #160, #13 ), #10, .T. ) ;
#33 =( LENGTH_UNIT ( ) NAMED_UNIT ( * ) SI_UNIT ( .MILLI., .METRE. ) );
#34 = CIRCLE ( 'NONE', #20, 60.25000000000000000 ) ;
#35 = DIRECTION ( 'NONE',  ( 0.0000000000000000000, 0.0000000000000000000, 1.000000000000000000 ) ) ;
#36 = AXIS2_PLACEMENT_3D ( 'NONE', #203, #151, #185 ) ;
#37 = VERTEX_POINT ( 'NONE', #186 ) ;
#38 = DIRECTION ( 'NONE',  ( 0.0000000000000000000, 0.0000000000000000000, 1.000000000000000000 ) ) ;
#39 = FACE_OUTER_BOUND ( 'NONE', #130, .T. ) ;
#40 = VERTEX_POINT ( 'NONE', #214 ) ;
#41 = ADVANCED_FACE ( 'NONE', ( #122 ), #103, .T. ) ;
#42 = AXIS2_PLACEMENT_3D ( 'NONE', #77, #30, #76 ) ;
#43 = CARTESIAN_POINT ( 'NONE',  ( 0.0000000000000000000, 0.0000000000000000000, 0.0000000000000000000 ) ) ;
#44 = CARTESIAN_POINT ( 'NONE',  ( 0.0000000000000000000, 0.0000000000000000000, -2.000000000000000000 ) ) ;
#45 =( NAMED_UNIT ( * ) SI_UNIT ( $, .STERADIAN. ) SOLID_ANGLE_UNIT ( ) );
#46 = UNCERTAINTY_MEASURE_WITH_UNIT (LENGTH_MEASURE( 1.000000000000000100E-005 ), #33, 'distance_accuracy_value', 'NONE');
#47 = CARTESIAN_POINT ( 'NONE',  ( -60.25000000000000000, 7.378496964862802100E-015, -2.000000000000000000 ) ) ;
#48 = EDGE_CURVE ( 'NONE', #165, #179, #176, .T. ) ;
#49 = DIRECTION ( 'NONE',  ( 0.0000000000000000000, 0.0000000000000000000, 1.000000000000000000 ) ) ;
#50 = APPLICATION_CONTEXT ( 'automotive_design' ) ;
#51 = ORIENTED_EDGE ( 'NONE', *, *, #98, .F. ) ;
#52 = CIRCLE ( 'NONE', #172, 50.79999999999999700 ) ;
#53 = ORIENTED_EDGE ( 'NONE', *, *, #55, .F. ) ;
#54 = STYLED_ITEM ( 'NONE', ( #70 ), #12 ) ;
#55 = EDGE_CURVE ( 'NONE', #149, #179, #87, .T. ) ;
#56 = ORIENTED_EDGE ( 'NONE', *, *, #14, .F. ) ;
#57 = CIRCLE ( 'NONE', #63, 60.25000000000000000 ) ;
#58 = DIRECTION ( 'NONE',  ( 0.0000000000000000000, 0.0000000000000000000, 1.000000000000000000 ) ) ;
#59 = DIRECTION ( 'NONE',  ( 1.000000000000000000, 0.0000000000000000000, 0.0000000000000000000 ) ) ;
#60 = SURFACE_STYLE_FILL_AREA ( #106 ) ;
#61 = CYLINDRICAL_SURFACE ( 'NONE', #147, 50.79999999999999700 ) ;
#62 = DIRECTION ( 'NONE',  ( 0.0000000000000000000, 0.0000000000000000000, 1.000000000000000000 ) ) ;
#63 = AXIS2_PLACEMENT_3D ( 'NONE', #183, #62, #213 ) ;
#64 = CARTESIAN_POINT ( 'NONE',  ( 50.79999999999999700, 0.0000000000000000000, -2.000000000000000000 ) ) ;
#65 = EDGE_CURVE ( 'NONE', #91, #23, #129, .T. ) ;
#66 = ORIENTED_EDGE ( 'NONE', *, *, #110, .F. ) ;
#67 = ORIENTED_EDGE ( 'NONE', *, *, #48, .F. ) ;
#68 =( NAMED_UNIT ( * ) SI_UNIT ( $, .STERADIAN. ) SOLID_ANGLE_UNIT ( ) );
#69 = PRODUCT_DEFINITION_FORMATION_WITH_SPECIFIED_SOURCE ( 'ANY', '', #210, .NOT_KNOWN. ) ;
#70 = PRESENTATION_STYLE_ASSIGNMENT (( #188 ) ) ;
#71 = CIRCLE ( 'NONE', #85, 60.25000000000000000 ) ;
#72 = COLOUR_RGB ( '',0.7254901960784313500, 0.4470588235294117300, 0.3686274509803921800 ) ;
#73 = CYLINDRICAL_SURFACE ( 'NONE', #36, 50.79999999999999700 ) ;
#74 = DIRECTION ( 'NONE',  ( 0.0000000000000000000, 0.0000000000000000000, 1.000000000000000000 ) ) ;
#75 = EDGE_CURVE ( 'NONE', #179, #149, #108, .T. ) ;
#76 = DIRECTION ( 'NONE',  ( 1.000000000000000000, 0.0000000000000000000, -0.0000000000000000000 ) ) ;
#77 = CARTESIAN_POINT ( 'NONE',  ( 0.0000000000000000000, 0.0000000000000000000, -2.000000000000000000 ) ) ;
#78 = DIRECTION ( 'NONE',  ( 1.000000000000000000, 0.0000000000000000000, 0.0000000000000000000 ) ) ;
#79 = DIRECTION ( 'NONE',  ( 0.0000000000000000000, 0.0000000000000000000, 1.000000000000000000 ) ) ;
#80 = APPLICATION_CONTEXT ( 'automotive_design' ) ;
#81 = DIRECTION ( 'NONE',  ( 1.000000000000000000, 0.0000000000000000000, 0.0000000000000000000 ) ) ;
#82 = VECTOR ( 'NONE', #74, 1000.000000000000000 ) ;
#83 = UNCERTAINTY_MEASURE_WITH_UNIT (LENGTH_MEASURE( 1.000000000000000100E-005 ), #104, 'distance_accuracy_value', 'NONE');
#84 = AXIS2_PLACEMENT_3D ( 'NONE', #141, #35, #205 ) ;
#85 = AXIS2_PLACEMENT_3D ( 'NONE', #7, #117, #31 ) ;
#86 = FACE_OUTER_BOUND ( 'NONE', #8, .T. ) ;
#87 = CIRCLE ( 'NONE', #128, 50.79999999999999700 ) ;
#88 = AXIS2_PLACEMENT_3D ( 'NONE', #191, #111, #174 ) ;
#89 = CARTESIAN_POINT ( 'NONE',  ( 0.0000000000000000000, 0.0000000000000000000, 0.0000000000000000000 ) ) ;
#90 =( LENGTH_UNIT ( ) NAMED_UNIT ( * ) SI_UNIT ( .MILLI., .METRE. ) );
#91 = VERTEX_POINT ( 'NONE', #47 ) ;
#92 = EDGE_LOOP ( 'NONE', ( #143, #3 ) ) ;
#93 = DIRECTION ( 'NONE',  ( 0.0000000000000000000, 0.0000000000000000000, 1.000000000000000000 ) ) ;
#94 = CARTESIAN_POINT ( 'NONE',  ( 0.0000000000000000000, 0.0000000000000000000, 0.0000000000000000000 ) ) ;
#95 = ORIENTED_EDGE ( 'NONE', *, *, #55, .T. ) ;
#96 = PRODUCT_DEFINITION ( 'UNKNOWN', '', #69, #193 ) ;
#97 = CARTESIAN_POINT ( 'NONE',  ( 0.0000000000000000000, 0.0000000000000000000, -2.000000000000000000 ) ) ;
#98 = EDGE_CURVE ( 'NONE', #91, #37, #178, .T. ) ;
#99 = ORIENTED_EDGE ( 'NONE', *, *, #25, .T. ) ;
#100 = SURFACE_STYLE_FILL_AREA ( #15 ) ;
#101 = ORIENTED_EDGE ( 'NONE', *, *, #75, .F. ) ;
#102 = MANIFOLD_SOLID_BREP ( 'Aufsatz-Linear austragen1', #136 ) ;
#103 = CYLINDRICAL_SURFACE ( 'NONE', #22, 60.25000000000000000 ) ;
#104 =( LENGTH_UNIT ( ) NAMED_UNIT ( * ) SI_UNIT ( .MILLI., .METRE. ) );
#105 = EDGE_LOOP ( 'NONE', ( #175, #190, #158, #208 ) ) ;
#106 = FILL_AREA_STYLE ('',( #146 ) ) ;
#107 = DIRECTION ( 'NONE',  ( 1.000000000000000000, 0.0000000000000000000, 0.0000000000000000000 ) ) ;
#108 = CIRCLE ( 'NONE', #196, 50.79999999999999700 ) ;
#109 = DIRECTION ( 'NONE',  ( 0.0000000000000000000, 0.0000000000000000000, 1.000000000000000000 ) ) ;
#110 = EDGE_CURVE ( 'NONE', #37, #91, #34, .T. ) ;
#111 = DIRECTION ( 'NONE',  ( 0.0000000000000000000, 0.0000000000000000000, 1.000000000000000000 ) ) ;
#112 = APPLICATION_PROTOCOL_DEFINITION ( 'draft international standard', 'automotive_design', 1998, #50 ) ;
#113 = ORIENTED_EDGE ( 'NONE', *, *, #75, .T. ) ;
#114 = EDGE_LOOP ( 'NONE', ( #66, #51 ) ) ;
#115 = AXIS2_PLACEMENT_3D ( 'NONE', #94, #38, #120 ) ;
#116 = DIRECTION ( 'NONE',  ( 0.0000000000000000000, 0.0000000000000000000, 1.000000000000000000 ) ) ;
#117 = DIRECTION ( 'NONE',  ( 0.0000000000000000000, 0.0000000000000000000, 1.000000000000000000 ) ) ;
#118 = SURFACE_STYLE_USAGE ( .BOTH. , #9 ) ;
#119 = EDGE_LOOP ( 'NONE', ( #53, #101 ) ) ;
#120 = DIRECTION ( 'NONE',  ( 1.000000000000000000, 0.0000000000000000000, -0.0000000000000000000 ) ) ;
#121 = CARTESIAN_POINT ( 'NONE',  ( 0.0000000000000000000, 0.0000000000000000000, -2.000000000000000000 ) ) ;
#122 = FACE_OUTER_BOUND ( 'NONE', #105, .T. ) ;
#123 = FILL_AREA_STYLE_COLOUR ( '', #1 ) ;
#124 = DIRECTION ( 'NONE',  ( 0.0000000000000000000, 0.0000000000000000000, 1.000000000000000000 ) ) ;
#125 = DIRECTION ( 'NONE',  ( 0.0000000000000000000, 0.0000000000000000000, 1.000000000000000000 ) ) ;
#126 = PRODUCT_DEFINITION_SHAPE ( 'NONE', 'NONE',  #96 ) ;
#127 = ADVANCED_FACE ( 'NONE', ( #144 ), #73, .F. ) ;
#128 = AXIS2_PLACEMENT_3D ( 'NONE', #43, #116, #28 ) ;
#129 = LINE ( 'NONE', #132, #182 ) ;
#130 = EDGE_LOOP ( 'NONE', ( #145, #24, #113, #17 ) ) ;
#131 = DIRECTION ( 'NONE',  ( 1.000000000000000000, 0.0000000000000000000, 0.0000000000000000000 ) ) ;
#132 = CARTESIAN_POINT ( 'NONE',  ( -60.25000000000000000, 7.378496964862802100E-015, -2.000000000000000000 ) ) ;
#133 = STYLED_ITEM ( 'NONE', ( #16 ), #102 ) ;
#134 = ORIENTED_EDGE ( 'NONE', *, *, #157, .F. ) ;
#135 = DIRECTION ( 'NONE',  ( 0.0000000000000000000, 0.0000000000000000000, 1.000000000000000000 ) ) ;
#136 = CLOSED_SHELL ( 'NONE', ( #27, #21, #41, #161, #32, #127 ) ) ;
#137 =( NAMED_UNIT ( * ) PLANE_ANGLE_UNIT ( ) SI_UNIT ( $, .RADIAN. ) );
#138 = FACE_OUTER_BOUND ( 'NONE', #114, .T. ) ;
#139 =( NAMED_UNIT ( * ) PLANE_ANGLE_UNIT ( ) SI_UNIT ( $, .RADIAN. ) );
#140 = EDGE_CURVE ( 'NONE', #37, #40, #187, .T. ) ;
#141 = CARTESIAN_POINT ( 'NONE',  ( 0.0000000000000000000, 0.0000000000000000000, 0.0000000000000000000 ) ) ;
#142 = ORIENTED_EDGE ( 'NONE', *, *, #140, .F. ) ;
#143 = ORIENTED_EDGE ( 'NONE', *, *, #157, .T. ) ;
#144 = FACE_OUTER_BOUND ( 'NONE', #192, .T. ) ;
#145 = ORIENTED_EDGE ( 'NONE', *, *, #25, .F. ) ;
#146 = FILL_AREA_STYLE_COLOUR ( '', #72 ) ;
#147 = AXIS2_PLACEMENT_3D ( 'NONE', #121, #125, #173 ) ;
#148 = VECTOR ( 'NONE', #124, 1000.000000000000000 ) ;
#149 = VERTEX_POINT ( 'NONE', #184 ) ;
#150 = CARTESIAN_POINT ( 'NONE',  ( 60.25000000000000000, 0.0000000000000000000, -2.000000000000000000 ) ) ;
#151 = DIRECTION ( 'NONE',  ( 0.0000000000000000000, 0.0000000000000000000, 1.000000000000000000 ) ) ;
#152 = ORIENTED_EDGE ( 'NONE', *, *, #4, .T. ) ;
#153 = CARTESIAN_POINT ( 'NONE',  ( -50.79999999999999700, 6.221205739668553700E-015, 0.0000000000000000000 ) ) ;
#154 = APPLICATION_PROTOCOL_DEFINITION ( 'draft international standard', 'automotive_design', 1998, #80 ) ;
#155 = CARTESIAN_POINT ( 'NONE',  ( 0.0000000000000000000, 0.0000000000000000000, -2.000000000000000000 ) ) ;
#156 = VECTOR ( 'NONE', #26, 1000.000000000000000 ) ;
#157 = EDGE_CURVE ( 'NONE', #40, #23, #71, .T. ) ;
#158 = ORIENTED_EDGE ( 'NONE', *, *, #140, .T. ) ;
#159 = EDGE_LOOP ( 'NONE', ( #19, #99 ) ) ;
#160 = FACE_BOUND ( 'NONE', #119, .T. ) ;
#161 = ADVANCED_FACE ( 'NONE', ( #195, #138 ), #163, .F. ) ;
#162 = CARTESIAN_POINT ( 'NONE',  ( -50.79999999999999700, 6.221205739668553700E-015, -2.000000000000000000 ) ) ;
#163 = PLANE ( 'NONE',  #42 ) ;
#164 = PRESENTATION_LAYER_ASSIGNMENT (  '', '', ( #133 ) ) ;
#165 = VERTEX_POINT ( 'NONE', #207 ) ;
#166 = CARTESIAN_POINT ( 'NONE',  ( 0.0000000000000000000, 0.0000000000000000000, -2.000000000000000000 ) ) ;
#167 = DIRECTION ( 'NONE',  ( 0.0000000000000000000, 0.0000000000000000000, 1.000000000000000000 ) ) ;
#168 = PRODUCT_CONTEXT ( 'NONE', #50, 'mechanical' ) ;
#169 =( GEOMETRIC_REPRESENTATION_CONTEXT ( 3 ) GLOBAL_UNCERTAINTY_ASSIGNED_CONTEXT ( ( #83 ) ) GLOBAL_UNIT_ASSIGNED_CONTEXT ( ( #104, #139, #204 ) ) REPRESENTATION_CONTEXT ( 'NONE', 'WORKASPACE' ) );
#170 = LINE ( 'NONE', #64, #148 ) ;
#171 = CARTESIAN_POINT ( 'NONE',  ( -60.25000000000000000, 7.378496964862802100E-015, 0.0000000000000000000 ) ) ;
#172 = AXIS2_PLACEMENT_3D ( 'NONE', #97, #49, #81 ) ;
#173 = DIRECTION ( 'NONE',  ( 1.000000000000000000, 0.0000000000000000000, 0.0000000000000000000 ) ) ;
#174 = DIRECTION ( 'NONE',  ( 1.000000000000000000, 0.0000000000000000000, 0.0000000000000000000 ) ) ;
#175 = ORIENTED_EDGE ( 'NONE', *, *, #65, .F. ) ;
#176 = LINE ( 'NONE', #162, #82 ) ;
#177 = MECHANICAL_DESIGN_GEOMETRIC_PRESENTATION_REPRESENTATION (  '', ( #133 ), #206 ) ;
#178 = CIRCLE ( 'NONE', #194, 60.25000000000000000 ) ;
#179 = VERTEX_POINT ( 'NONE', #153 ) ;
#180 = MECHANICAL_DESIGN_GEOMETRIC_PRESENTATION_REPRESENTATION (  '', ( #54 ), #169 ) ;
#181 = EDGE_CURVE ( 'NONE', #23, #40, #57, .T. ) ;
#182 = VECTOR ( 'NONE', #167, 1000.000000000000000 ) ;
#183 = CARTESIAN_POINT ( 'NONE',  ( 0.0000000000000000000, 0.0000000000000000000, 0.0000000000000000000 ) ) ;
#184 = CARTESIAN_POINT ( 'NONE',  ( 50.79999999999999700, 0.0000000000000000000, 0.0000000000000000000 ) ) ;
#185 = DIRECTION ( 'NONE',  ( 1.000000000000000000, 0.0000000000000000000, 0.0000000000000000000 ) ) ;
#186 = CARTESIAN_POINT ( 'NONE',  ( 60.25000000000000000, 0.0000000000000000000, -2.000000000000000000 ) ) ;
#187 = LINE ( 'NONE', #150, #156 ) ;
#188 = SURFACE_STYLE_USAGE ( .BOTH. , #189 ) ;
#189 = SURFACE_SIDE_STYLE ('',( #100 ) ) ;
#190 = ORIENTED_EDGE ( 'NONE', *, *, #98, .T. ) ;
#191 = CARTESIAN_POINT ( 'NONE',  ( 0.0000000000000000000, 0.0000000000000000000, -2.000000000000000000 ) ) ;
#192 = EDGE_LOOP ( 'NONE', ( #67, #56, #152, #95 ) ) ;
#193 = PRODUCT_DEFINITION_CONTEXT ( 'detailed design', #80, 'design' ) ;
#194 = AXIS2_PLACEMENT_3D ( 'NONE', #44, #135, #59 ) ;
#195 = FACE_BOUND ( 'NONE', #159, .T. ) ;
#196 = AXIS2_PLACEMENT_3D ( 'NONE', #89, #58, #131 ) ;
#197 = VERTEX_POINT ( 'NONE', #5 ) ;
#198 = ORIENTED_EDGE ( 'NONE', *, *, #65, .T. ) ;
#199 = SHAPE_DEFINITION_REPRESENTATION ( #126, #12 ) ;
#200 = CYLINDRICAL_SURFACE ( 'NONE', #88, 60.25000000000000000 ) ;
#201 = UNCERTAINTY_MEASURE_WITH_UNIT (LENGTH_MEASURE( 1.000000000000000100E-005 ), #90, 'distance_accuracy_value', 'NONE');
#202 = AXIS2_PLACEMENT_3D ( 'NONE', #11, #109, #209 ) ;
#203 = CARTESIAN_POINT ( 'NONE',  ( 0.0000000000000000000, 0.0000000000000000000, -2.000000000000000000 ) ) ;
#204 =( NAMED_UNIT ( * ) SI_UNIT ( $, .STERADIAN. ) SOLID_ANGLE_UNIT ( ) );
#205 = DIRECTION ( 'NONE',  ( 1.000000000000000000, 0.0000000000000000000, 0.0000000000000000000 ) ) ;
#206 =( GEOMETRIC_REPRESENTATION_CONTEXT ( 3 ) GLOBAL_UNCERTAINTY_ASSIGNED_CONTEXT ( ( #46 ) ) GLOBAL_UNIT_ASSIGNED_CONTEXT ( ( #33, #137, #45 ) ) REPRESENTATION_CONTEXT ( 'NONE', 'WORKASPACE' ) );
#207 = CARTESIAN_POINT ( 'NONE',  ( -50.79999999999999700, 6.221205739668553700E-015, -2.000000000000000000 ) ) ;
#208 = ORIENTED_EDGE ( 'NONE', *, *, #181, .F. ) ;
#209 = DIRECTION ( 'NONE',  ( 1.000000000000000000, 0.0000000000000000000, 0.0000000000000000000 ) ) ;
#210 = PRODUCT ( '490DFL100-G-S5', '490DFL100-G-S5', '', ( #168 ) ) ;
#211 = PRESENTATION_LAYER_ASSIGNMENT (  '', '', ( #54 ) ) ;
#212 =( GEOMETRIC_REPRESENTATION_CONTEXT ( 3 ) GLOBAL_UNCERTAINTY_ASSIGNED_CONTEXT ( ( #201 ) ) GLOBAL_UNIT_ASSIGNED_CONTEXT ( ( #90, #18, #68 ) ) REPRESENTATION_CONTEXT ( 'NONE', 'WORKASPACE' ) );
#213 = DIRECTION ( 'NONE',  ( 1.000000000000000000, 0.0000000000000000000, 0.0000000000000000000 ) ) ;
#214 = CARTESIAN_POINT ( 'NONE',  ( 60.25000000000000000, 0.0000000000000000000, 0.0000000000000000000 ) ) ;
ENDSEC;
END-ISO-10303-21;
