ISO-10303-21;
/* Copyright TRINOS Vakuum-Systeme GmbH */
HEADER;
FILE_DESCRIPTION (( 'STEP AP214' ),
    '1' );
FILE_NAME ('100 SPM 040.STEP',
    '2010-07-27T09:08:58',
    ( '-' ),
    ( 'Trinos' ),
    'SwSTEP 2.0',
    'SolidWorks 2010',
    '' );
FILE_SCHEMA (( 'AUTOMOTIVE_DESIGN' ));
ENDSEC;

DATA;
#1 = MECHANICAL_DESIGN_GEOMETRIC_PRESENTATION_REPRESENTATION (  '', ( #149 ), #22 ) ;
#2 = CARTESIAN_POINT ( 'NONE',  ( -26.25000000000000400, 0.0000000000000000000, 0.0000000000000000000 ) ) ;
#3 = FACE_OUTER_BOUND ( 'NONE', #33, .T. ) ;
#4 = CYLINDRICAL_SURFACE ( 'NONE', #6, 22.25000000000000400 ) ;
#5 = CARTESIAN_POINT ( 'NONE',  ( 22.25000000000000400, 2.724839128102861000E-015, -213.0000000000000000 ) ) ;
#6 = AXIS2_PLACEMENT_3D ( 'NONE', #7, #8, #9 ) ;
#7 = CARTESIAN_POINT ( 'NONE',  ( 0.0000000000000000000, 0.0000000000000000000, 0.0000000000000000000 ) ) ;
#8 = DIRECTION ( 'NONE',  ( 0.0000000000000000000, -0.0000000000000000000, -1.000000000000000000 ) ) ;
#9 = DIRECTION ( 'NONE',  ( -1.000000000000000000, 0.0000000000000000000, 0.0000000000000000000 ) ) ;
#10 =( NAMED_UNIT ( * ) SI_UNIT ( $, .STERADIAN. ) SOLID_ANGLE_UNIT ( ) );
#11 = UNCERTAINTY_MEASURE_WITH_UNIT (LENGTH_MEASURE( 1.000000000000000100E-005 ), #207, 'distance_accuracy_value', 'NONE');
#12 =( GEOMETRIC_REPRESENTATION_CONTEXT ( 3 ) GLOBAL_UNCERTAINTY_ASSIGNED_CONTEXT ( ( #11 ) ) GLOBAL_UNIT_ASSIGNED_CONTEXT ( ( #207, #205, #10 ) ) REPRESENTATION_CONTEXT ( 'NONE', 'WORKASPACE' ) );
#13 = ADVANCED_BREP_SHAPE_REPRESENTATION ( '100 SPM 040', ( #72, #214 ), #12 ) ;
#14 =( LENGTH_UNIT ( ) NAMED_UNIT ( * ) SI_UNIT ( .MILLI., .METRE. ) );
#15 =( NAMED_UNIT ( * ) PLANE_ANGLE_UNIT ( ) SI_UNIT ( $, .RADIAN. ) );
#16 = DIRECTION ( 'NONE',  ( 0.0000000000000000000, -0.0000000000000000000, -1.000000000000000000 ) ) ;
#17 = UNCERTAINTY_MEASURE_WITH_UNIT (LENGTH_MEASURE( 1.000000000000000100E-005 ), #14, 'distance_accuracy_value', 'NONE');
#18 = CARTESIAN_POINT ( 'NONE',  ( 26.25000000000000400, 3.214697847761802400E-015, 0.0000000000000000000 ) ) ;
#19 =( NAMED_UNIT ( * ) SI_UNIT ( $, .STERADIAN. ) SOLID_ANGLE_UNIT ( ) );
#20 = LINE ( 'NONE', #18, #21 ) ;
#21 = VECTOR ( 'NONE', #16, 1000.000000000000000 ) ;
#22 =( GEOMETRIC_REPRESENTATION_CONTEXT ( 3 ) GLOBAL_UNCERTAINTY_ASSIGNED_CONTEXT ( ( #17 ) ) GLOBAL_UNIT_ASSIGNED_CONTEXT ( ( #14, #15, #19 ) ) REPRESENTATION_CONTEXT ( 'NONE', 'WORKASPACE' ) );
#23 = PRODUCT_DEFINITION_FORMATION_WITH_SPECIFIED_SOURCE ( 'ANY', '', #29, .NOT_KNOWN. ) ;
#24 = PRODUCT_CONTEXT ( 'NONE', #26, 'mechanical' ) ;
#25 = APPLICATION_PROTOCOL_DEFINITION ( 'draft international standard', 'automotive_design', 1998, #26 ) ;
#26 = APPLICATION_CONTEXT ( 'automotive_design' ) ;
#27 = APPLICATION_PROTOCOL_DEFINITION ( 'draft international standard', 'automotive_design', 1998, #28 ) ;
#28 = APPLICATION_CONTEXT ( 'automotive_design' ) ;
#29 = PRODUCT ( '100 SPM 040', '100 SPM 040', '', ( #24 ) ) ;
#30 = UNCERTAINTY_MEASURE_WITH_UNIT (LENGTH_MEASURE( 1.000000000000000100E-005 ), #102, 'distance_accuracy_value', 'NONE');
#31 =( NAMED_UNIT ( * ) SI_UNIT ( $, .STERADIAN. ) SOLID_ANGLE_UNIT ( ) );
#32 =( NAMED_UNIT ( * ) PLANE_ANGLE_UNIT ( ) SI_UNIT ( $, .RADIAN. ) );
#33 = EDGE_LOOP ( 'NONE', ( #169, #138, #137, #135 ) ) ;
#34 = ORIENTED_EDGE ( 'NONE', *, *, #73, .F. ) ;
#35 = EDGE_CURVE ( 'NONE', #160, #165, #71, .T. ) ;
#36 = ORIENTED_EDGE ( 'NONE', *, *, #116, .F. ) ;
#37 = ORIENTED_EDGE ( 'NONE', *, *, #144, .T. ) ;
#38 = ORIENTED_EDGE ( 'NONE', *, *, #73, .T. ) ;
#39 = ORIENTED_EDGE ( 'NONE', *, *, #170, .F. ) ;
#40 = SURFACE_SIDE_STYLE ('',( #41 ) ) ;
#41 = SURFACE_STYLE_FILL_AREA ( #119 ) ;
#42 = CARTESIAN_POINT ( 'NONE',  ( 22.25000000000000400, 2.724839128102861000E-015, 0.0000000000000000000 ) ) ;
#43 = AXIS2_PLACEMENT_3D ( 'NONE', #92, #91, #80 ) ;
#44 = PRESENTATION_STYLE_ASSIGNMENT (( #45 ) ) ;
#45 = SURFACE_STYLE_USAGE ( .BOTH. , #40 ) ;
#46 = CARTESIAN_POINT ( 'NONE',  ( -22.25000000000000400, 0.0000000000000000000, 0.0000000000000000000 ) ) ;
#47 = DIRECTION ( 'NONE',  ( 1.000000000000000000, 0.0000000000000000000, 0.0000000000000000000 ) ) ;
#48 = DIRECTION ( 'NONE',  ( 0.0000000000000000000, 0.0000000000000000000, 1.000000000000000000 ) ) ;
#49 = FACE_OUTER_BOUND ( 'NONE', #134, .T. ) ;
#50 = CARTESIAN_POINT ( 'NONE',  ( 26.25000000000000400, 3.214697847761802400E-015, -213.0000000000000000 ) ) ;
#51 = AXIS2_PLACEMENT_3D ( 'NONE', #77, #48, #47 ) ;
#52 = DIRECTION ( 'NONE',  ( 0.0000000000000000000, 0.0000000000000000000, 1.000000000000000000 ) ) ;
#53 = LINE ( 'NONE', #83, #82 ) ;
#54 = CYLINDRICAL_SURFACE ( 'NONE', #43, 26.25000000000000400 ) ;
#55 = DIRECTION ( 'NONE',  ( 1.000000000000000000, 0.0000000000000000000, 0.0000000000000000000 ) ) ;
#56 = DIRECTION ( 'NONE',  ( 0.0000000000000000000, 0.0000000000000000000, 1.000000000000000000 ) ) ;
#57 = CARTESIAN_POINT ( 'NONE',  ( 0.0000000000000000000, 0.0000000000000000000, 0.0000000000000000000 ) ) ;
#58 = AXIS2_PLACEMENT_3D ( 'NONE', #57, #56, #55 ) ;
#59 = AXIS2_PLACEMENT_3D ( 'NONE', #130, #52, #124 ) ;
#60 = CARTESIAN_POINT ( 'NONE',  ( 0.0000000000000000000, 0.0000000000000000000, -213.0000000000000000 ) ) ;
#61 = CIRCLE ( 'NONE', #89, 26.25000000000000400 ) ;
#62 = DIRECTION ( 'NONE',  ( 1.000000000000000000, 0.0000000000000000000, 0.0000000000000000000 ) ) ;
#63 = CIRCLE ( 'NONE', #58, 22.25000000000000400 ) ;
#64 = PLANE ( 'NONE',  #59 ) ;
#65 = PLANE ( 'NONE',  #122 ) ;
#66 = SURFACE_STYLE_FILL_AREA ( #67 ) ;
#67 = FILL_AREA_STYLE ('',( #68 ) ) ;
#68 = FILL_AREA_STYLE_COLOUR ( '', #121 ) ;
#69 = CLOSED_SHELL ( 'NONE', ( #167, #162, #101, #95, #141, #154 ) ) ;
#70 = EDGE_LOOP ( 'NONE', ( #117, #100 ) ) ;
#71 = LINE ( 'NONE', #113, #112 ) ;
#72 = MANIFOLD_SOLID_BREP ( 'Vereinigen1', #69 ) ;
#73 = EDGE_CURVE ( 'NONE', #166, #164, #128, .T. ) ;
#74 = DIRECTION ( 'NONE',  ( 0.0000000000000000000, 0.0000000000000000000, 1.000000000000000000 ) ) ;
#75 = DIRECTION ( 'NONE',  ( 1.000000000000000000, 0.0000000000000000000, 0.0000000000000000000 ) ) ;
#76 = DIRECTION ( 'NONE',  ( 0.0000000000000000000, 0.0000000000000000000, 1.000000000000000000 ) ) ;
#77 = CARTESIAN_POINT ( 'NONE',  ( 0.0000000000000000000, 0.0000000000000000000, 0.0000000000000000000 ) ) ;
#78 = FACE_OUTER_BOUND ( 'NONE', #142, .T. ) ;
#79 = AXIS2_PLACEMENT_3D ( 'NONE', #60, #76, #75 ) ;
#80 = DIRECTION ( 'NONE',  ( -1.000000000000000000, 0.0000000000000000000, 0.0000000000000000000 ) ) ;
#81 = DIRECTION ( 'NONE',  ( 0.0000000000000000000, -0.0000000000000000000, -1.000000000000000000 ) ) ;
#82 = VECTOR ( 'NONE', #81, 1000.000000000000000 ) ;
#83 = CARTESIAN_POINT ( 'NONE',  ( -22.25000000000000400, 0.0000000000000000000, 0.0000000000000000000 ) ) ;
#84 = CIRCLE ( 'NONE', #79, 22.25000000000000400 ) ;
#85 = CARTESIAN_POINT ( 'NONE',  ( 26.25000000000000400, 3.214697847761802400E-015, 0.0000000000000000000 ) ) ;
#86 = DIRECTION ( 'NONE',  ( 1.000000000000000000, 0.0000000000000000000, 0.0000000000000000000 ) ) ;
#87 = DIRECTION ( 'NONE',  ( 0.0000000000000000000, 0.0000000000000000000, 1.000000000000000000 ) ) ;
#88 = CARTESIAN_POINT ( 'NONE',  ( 0.0000000000000000000, 0.0000000000000000000, 0.0000000000000000000 ) ) ;
#89 = AXIS2_PLACEMENT_3D ( 'NONE', #88, #87, #86 ) ;
#90 = COLOUR_RGB ( '',0.7529411764705882200, 0.7529411764705882200, 0.7529411764705882200 ) ;
#91 = DIRECTION ( 'NONE',  ( 0.0000000000000000000, -0.0000000000000000000, -1.000000000000000000 ) ) ;
#92 = CARTESIAN_POINT ( 'NONE',  ( 0.0000000000000000000, 0.0000000000000000000, 0.0000000000000000000 ) ) ;
#93 = EDGE_LOOP ( 'NONE', ( #94, #147 ) ) ;
#94 = ORIENTED_EDGE ( 'NONE', *, *, #139, .T. ) ;
#95 = ADVANCED_FACE ( 'NONE', ( #110, #109 ), #65, .F. ) ;
#96 = EDGE_LOOP ( 'NONE', ( #145, #146 ) ) ;
#97 = EDGE_CURVE ( 'NONE', #160, #159, #63, .T. ) ;
#98 = ORIENTED_EDGE ( 'NONE', *, *, #97, .F. ) ;
#99 = ORIENTED_EDGE ( 'NONE', *, *, #140, .F. ) ;
#100 = ORIENTED_EDGE ( 'NONE', *, *, #156, .T. ) ;
#101 = ADVANCED_FACE ( 'NONE', ( #123, #114 ), #64, .T. ) ;
#102 =( LENGTH_UNIT ( ) NAMED_UNIT ( * ) SI_UNIT ( .MILLI., .METRE. ) );
#103 = MECHANICAL_DESIGN_GEOMETRIC_PRESENTATION_REPRESENTATION (  '', ( #105 ), #131 ) ;
#104 = PRESENTATION_LAYER_ASSIGNMENT (  '', '', ( #105 ) ) ;
#105 = STYLED_ITEM ( 'NONE', ( #106 ), #72 ) ;
#106 = PRESENTATION_STYLE_ASSIGNMENT (( #107 ) ) ;
#107 = SURFACE_STYLE_USAGE ( .BOTH. , #108 ) ;
#108 = SURFACE_SIDE_STYLE ('',( #66 ) ) ;
#109 = FACE_BOUND ( 'NONE', #93, .T. ) ;
#110 = FACE_OUTER_BOUND ( 'NONE', #96, .T. ) ;
#111 = DIRECTION ( 'NONE',  ( 0.0000000000000000000, -0.0000000000000000000, -1.000000000000000000 ) ) ;
#112 = VECTOR ( 'NONE', #111, 1000.000000000000000 ) ;
#113 = CARTESIAN_POINT ( 'NONE',  ( 22.25000000000000400, 2.724839128102861000E-015, 0.0000000000000000000 ) ) ;
#114 = FACE_BOUND ( 'NONE', #118, .T. ) ;
#115 = CARTESIAN_POINT ( 'NONE',  ( 0.0000000000000000000, 0.0000000000000000000, -213.0000000000000000 ) ) ;
#116 = EDGE_CURVE ( 'NONE', #166, #136, #61, .T. ) ;
#117 = ORIENTED_EDGE ( 'NONE', *, *, #116, .T. ) ;
#118 = EDGE_LOOP ( 'NONE', ( #99, #98 ) ) ;
#119 = FILL_AREA_STYLE ('',( #120 ) ) ;
#120 = FILL_AREA_STYLE_COLOUR ( '', #90 ) ;
#121 = COLOUR_RGB ( '',0.7529411764705882200, 0.7529411764705882200, 0.7529411764705882200 ) ;
#122 = AXIS2_PLACEMENT_3D ( 'NONE', #115, #74, #62 ) ;
#123 = FACE_OUTER_BOUND ( 'NONE', #70, .T. ) ;
#124 = DIRECTION ( 'NONE',  ( 1.000000000000000000, 0.0000000000000000000, 0.0000000000000000000 ) ) ;
#125 = DIRECTION ( 'NONE',  ( 0.0000000000000000000, -0.0000000000000000000, -1.000000000000000000 ) ) ;
#126 = VECTOR ( 'NONE', #125, 1000.000000000000000 ) ;
#127 = CARTESIAN_POINT ( 'NONE',  ( -26.25000000000000400, 0.0000000000000000000, 0.0000000000000000000 ) ) ;
#128 = LINE ( 'NONE', #127, #126 ) ;
#129 = CIRCLE ( 'NONE', #51, 22.25000000000000400 ) ;
#130 = CARTESIAN_POINT ( 'NONE',  ( 0.0000000000000000000, 0.0000000000000000000, 0.0000000000000000000 ) ) ;
#131 =( GEOMETRIC_REPRESENTATION_CONTEXT ( 3 ) GLOBAL_UNCERTAINTY_ASSIGNED_CONTEXT ( ( #30 ) ) GLOBAL_UNIT_ASSIGNED_CONTEXT ( ( #102, #32, #31 ) ) REPRESENTATION_CONTEXT ( 'NONE', 'WORKASPACE' ) );
#132 = ORIENTED_EDGE ( 'NONE', *, *, #156, .F. ) ;
#133 = EDGE_CURVE ( 'NONE', #159, #168, #53, .T. ) ;
#134 = EDGE_LOOP ( 'NONE', ( #132, #157, #163, #34 ) ) ;
#135 = ORIENTED_EDGE ( 'NONE', *, *, #133, .F. ) ;
#136 = VERTEX_POINT ( 'NONE', #85 ) ;
#137 = ORIENTED_EDGE ( 'NONE', *, *, #139, .F. ) ;
#138 = ORIENTED_EDGE ( 'NONE', *, *, #35, .T. ) ;
#139 = EDGE_CURVE ( 'NONE', #168, #165, #84, .T. ) ;
#140 = EDGE_CURVE ( 'NONE', #159, #160, #129, .T. ) ;
#141 = ADVANCED_FACE ( 'NONE', ( #78 ), #54, .T. ) ;
#142 = EDGE_LOOP ( 'NONE', ( #39, #36, #38, #37 ) ) ;
#143 = EDGE_CURVE ( 'NONE', #165, #168, #177, .T. ) ;
#144 = EDGE_CURVE ( 'NONE', #164, #161, #179, .T. ) ;
#145 = ORIENTED_EDGE ( 'NONE', *, *, #144, .F. ) ;
#146 = ORIENTED_EDGE ( 'NONE', *, *, #158, .F. ) ;
#147 = ORIENTED_EDGE ( 'NONE', *, *, #143, .T. ) ;
#148 = PRESENTATION_LAYER_ASSIGNMENT (  '', '', ( #149 ) ) ;
#149 = STYLED_ITEM ( 'NONE', ( #44 ), #13 ) ;
#150 = ORIENTED_EDGE ( 'NONE', *, *, #35, .F. ) ;
#151 = ORIENTED_EDGE ( 'NONE', *, *, #97, .T. ) ;
#152 = EDGE_LOOP ( 'NONE', ( #150, #151, #155, #153 ) ) ;
#153 = ORIENTED_EDGE ( 'NONE', *, *, #143, .F. ) ;
#154 = ADVANCED_FACE ( 'NONE', ( #197 ), #180, .F. ) ;
#155 = ORIENTED_EDGE ( 'NONE', *, *, #133, .T. ) ;
#156 = EDGE_CURVE ( 'NONE', #136, #166, #192, .T. ) ;
#157 = ORIENTED_EDGE ( 'NONE', *, *, #170, .T. ) ;
#158 = EDGE_CURVE ( 'NONE', #161, #164, #201, .T. ) ;
#159 = VERTEX_POINT ( 'NONE', #46 ) ;
#160 = VERTEX_POINT ( 'NONE', #42 ) ;
#161 = VERTEX_POINT ( 'NONE', #50 ) ;
#162 = ADVANCED_FACE ( 'NONE', ( #49 ), #190, .T. ) ;
#163 = ORIENTED_EDGE ( 'NONE', *, *, #158, .T. ) ;
#164 = VERTEX_POINT ( 'NONE', #199 ) ;
#165 = VERTEX_POINT ( 'NONE', #5 ) ;
#166 = VERTEX_POINT ( 'NONE', #2 ) ;
#167 = ADVANCED_FACE ( 'NONE', ( #3 ), #4, .F. ) ;
#168 = VERTEX_POINT ( 'NONE', #206 ) ;
#169 = ORIENTED_EDGE ( 'NONE', *, *, #140, .T. ) ;
#170 = EDGE_CURVE ( 'NONE', #136, #161, #20, .T. ) ;
#171 = PRODUCT_DEFINITION_CONTEXT ( 'detailed design', #28, 'design' ) ;
#172 = CARTESIAN_POINT ( 'NONE',  ( 0.0000000000000000000, 0.0000000000000000000, 0.0000000000000000000 ) ) ;
#173 = AXIS2_PLACEMENT_3D ( 'NONE', #172, #178, #202 ) ;
#174 = AXIS2_PLACEMENT_3D ( 'NONE', #176, #182, #191 ) ;
#175 = CARTESIAN_POINT ( 'NONE',  ( 0.0000000000000000000, 0.0000000000000000000, -213.0000000000000000 ) ) ;
#176 = CARTESIAN_POINT ( 'NONE',  ( 0.0000000000000000000, 0.0000000000000000000, -213.0000000000000000 ) ) ;
#177 = CIRCLE ( 'NONE', #174, 22.25000000000000400 ) ;
#178 = DIRECTION ( 'NONE',  ( 0.0000000000000000000, -0.0000000000000000000, -1.000000000000000000 ) ) ;
#179 = CIRCLE ( 'NONE', #181, 26.25000000000000400 ) ;
#180 = CYLINDRICAL_SURFACE ( 'NONE', #193, 22.25000000000000400 ) ;
#181 = AXIS2_PLACEMENT_3D ( 'NONE', #175, #195, #194 ) ;
#182 = DIRECTION ( 'NONE',  ( 0.0000000000000000000, 0.0000000000000000000, 1.000000000000000000 ) ) ;
#183 = DIRECTION ( 'NONE',  ( -1.000000000000000000, 0.0000000000000000000, 0.0000000000000000000 ) ) ;
#184 = AXIS2_PLACEMENT_3D ( 'NONE', #186, #185, #200 ) ;
#185 = DIRECTION ( 'NONE',  ( 0.0000000000000000000, 0.0000000000000000000, 1.000000000000000000 ) ) ;
#186 = CARTESIAN_POINT ( 'NONE',  ( 0.0000000000000000000, 0.0000000000000000000, 0.0000000000000000000 ) ) ;
#187 = DIRECTION ( 'NONE',  ( 0.0000000000000000000, 0.0000000000000000000, 1.000000000000000000 ) ) ;
#188 = DIRECTION ( 'NONE',  ( 0.0000000000000000000, -0.0000000000000000000, -1.000000000000000000 ) ) ;
#189 = CARTESIAN_POINT ( 'NONE',  ( 0.0000000000000000000, 0.0000000000000000000, -213.0000000000000000 ) ) ;
#190 = CYLINDRICAL_SURFACE ( 'NONE', #173, 26.25000000000000400 ) ;
#191 = DIRECTION ( 'NONE',  ( 1.000000000000000000, 0.0000000000000000000, 0.0000000000000000000 ) ) ;
#192 = CIRCLE ( 'NONE', #184, 26.25000000000000400 ) ;
#193 = AXIS2_PLACEMENT_3D ( 'NONE', #196, #188, #183 ) ;
#194 = DIRECTION ( 'NONE',  ( 1.000000000000000000, 0.0000000000000000000, 0.0000000000000000000 ) ) ;
#195 = DIRECTION ( 'NONE',  ( 0.0000000000000000000, 0.0000000000000000000, 1.000000000000000000 ) ) ;
#196 = CARTESIAN_POINT ( 'NONE',  ( 0.0000000000000000000, 0.0000000000000000000, 0.0000000000000000000 ) ) ;
#197 = FACE_OUTER_BOUND ( 'NONE', #152, .T. ) ;
#198 = PRODUCT_DEFINITION ( 'UNKNOWN', '', #23, #171 ) ;
#199 = CARTESIAN_POINT ( 'NONE',  ( -26.25000000000000400, 0.0000000000000000000, -213.0000000000000000 ) ) ;
#200 = DIRECTION ( 'NONE',  ( 1.000000000000000000, 0.0000000000000000000, 0.0000000000000000000 ) ) ;
#201 = CIRCLE ( 'NONE', #204, 26.25000000000000400 ) ;
#202 = DIRECTION ( 'NONE',  ( -1.000000000000000000, 0.0000000000000000000, 0.0000000000000000000 ) ) ;
#203 = DIRECTION ( 'NONE',  ( 1.000000000000000000, 0.0000000000000000000, 0.0000000000000000000 ) ) ;
#204 = AXIS2_PLACEMENT_3D ( 'NONE', #189, #187, #203 ) ;
#205 =( NAMED_UNIT ( * ) PLANE_ANGLE_UNIT ( ) SI_UNIT ( $, .RADIAN. ) );
#206 = CARTESIAN_POINT ( 'NONE',  ( -22.25000000000000400, 0.0000000000000000000, -213.0000000000000000 ) ) ;
#207 =( LENGTH_UNIT ( ) NAMED_UNIT ( * ) SI_UNIT ( .MILLI., .METRE. ) );
#208 = PRODUCT_RELATED_PRODUCT_CATEGORY ( 'part', '', ( #29 ) ) ;
#209 = PRODUCT_DEFINITION_SHAPE ( 'NONE', 'NONE',  #198 ) ;
#210 = SHAPE_DEFINITION_REPRESENTATION ( #209, #13 ) ;
#211 = CARTESIAN_POINT ( 'NONE',  ( 0.0000000000000000000, 0.0000000000000000000, 0.0000000000000000000 ) ) ;
#212 = DIRECTION ( 'NONE',  ( 1.000000000000000000, 0.0000000000000000000, 0.0000000000000000000 ) ) ;
#213 = DIRECTION ( 'NONE',  ( 0.0000000000000000000, 0.0000000000000000000, 1.000000000000000000 ) ) ;
#214 = AXIS2_PLACEMENT_3D ( 'NONE', #211, #213, #212 ) ;
ENDSEC;
END-ISO-10303-21;
