ISO-10303-21;
/* Copyright TRINOS Vakuum-Systeme GmbH */
HEADER;
FILE_DESCRIPTION (( 'STEP AP214' ),
    '1' );
FILE_NAME ('602 DOR 400-S1.STEP',
    '2012-08-06T12:25:18',
    ( '' ),
    ( '' ),
    'SwSTEP 2.0',
    'SolidWorks 2010',
    '' );
FILE_SCHEMA (( 'AUTOMOTIVE_DESIGN' ));
ENDSEC;

DATA;
#1 = DIRECTION ( 'NONE',  ( 0.0000000000000000000, 0.0000000000000000000, 1.000000000000000000 ) ) ;
#2 =( NAMED_UNIT ( * ) SI_UNIT ( $, .STERADIAN. ) SOLID_ANGLE_UNIT ( ) );
#3 = FILL_AREA_STYLE_COLOUR ( '', #143 ) ;
#4 = VERTEX_POINT ( 'NONE', #28 ) ;
#5 =( LENGTH_UNIT ( ) NAMED_UNIT ( * ) SI_UNIT ( .MILLI., .METRE. ) );
#6 = VERTEX_POINT ( 'NONE', #10 ) ;
#7 = SURFACE_SIDE_STYLE ('',( #149 ) ) ;
#8 =( NAMED_UNIT ( * ) PLANE_ANGLE_UNIT ( ) SI_UNIT ( $, .RADIAN. ) );
#9 = CARTESIAN_POINT ( 'NONE',  ( 0.0000000000000000000, 2.685038107130571900E-014, -219.2500000000000000 ) ) ;
#10 = CARTESIAN_POINT ( 'NONE',  ( 0.0000000000000000000, 0.0000000000000000000, 220.5000000000000000 ) ) ;
#11 =( NAMED_UNIT ( * ) SI_UNIT ( $, .STERADIAN. ) SOLID_ANGLE_UNIT ( ) );
#12 = DIRECTION ( 'NONE',  ( 0.0000000000000000000, -1.224646799147349500E-016, 1.000000000000000000 ) ) ;
#13 = CARTESIAN_POINT ( 'NONE',  ( 0.0000000000000000000, 2.700346192119913800E-014, -220.5000000000000000 ) ) ;
#14 =( LENGTH_UNIT ( ) NAMED_UNIT ( * ) SI_UNIT ( .MILLI., .METRE. ) );
#15 =( NAMED_UNIT ( * ) PLANE_ANGLE_UNIT ( ) SI_UNIT ( $, .RADIAN. ) );
#16 = CARTESIAN_POINT ( 'NONE',  ( 1.530808498934192800E-016, 0.0000000000000000000, 0.0000000000000000000 ) ) ;
#17 = DIRECTION ( 'NONE',  ( -0.0000000000000000000, 1.000000000000000000, 1.224646799147353200E-016 ) ) ;
#18 = CARTESIAN_POINT ( 'NONE',  ( 0.0000000000000000000, 0.0000000000000000000, 0.0000000000000000000 ) ) ;
#19 = VERTEX_POINT ( 'NONE', #13 ) ;
#20 = FILL_AREA_STYLE ('',( #3 ) ) ;
#21 = DIRECTION ( 'NONE',  ( -1.000000000000000000, -0.0000000000000000000, -0.0000000000000000000 ) ) ;
#22 =( LENGTH_UNIT ( ) NAMED_UNIT ( * ) SI_UNIT ( .MILLI., .METRE. ) );
#23 =( NAMED_UNIT ( * ) SI_UNIT ( $, .STERADIAN. ) SOLID_ANGLE_UNIT ( ) );
#24 = DIRECTION ( 'NONE',  ( 0.0000000000000000000, 0.0000000000000000000, 1.000000000000000000 ) ) ;
#25 = APPLICATION_CONTEXT ( 'automotive_design' ) ;
#26 = FILL_AREA_STYLE ('',( #68 ) ) ;
#27 = CARTESIAN_POINT ( 'NONE',  ( 0.0000000000000000000, 0.0000000000000000000, 0.0000000000000000000 ) ) ;
#28 = CARTESIAN_POINT ( 'NONE',  ( 0.0000000000000000000, 0.0000000000000000000, 218.0000000000000000 ) ) ;
#29 = DIRECTION ( 'NONE',  ( 0.0000000000000000000, -1.000000000000000000, 0.0000000000000000000 ) ) ;
#30 = DIRECTION ( 'NONE',  ( -1.000000000000000000, -0.0000000000000000000, -0.0000000000000000000 ) ) ;
#31 = DIRECTION ( 'NONE',  ( 0.0000000000000000000, 0.0000000000000000000, 1.000000000000000000 ) ) ;
#32 = DIRECTION ( 'NONE',  ( 0.0000000000000000000, 0.0000000000000000000, -1.000000000000000000 ) ) ;
#33 = CARTESIAN_POINT ( 'NONE',  ( 0.0000000000000000000, 0.0000000000000000000, 0.0000000000000000000 ) ) ;
#34 = DIRECTION ( 'NONE',  ( -1.000000000000000000, -0.0000000000000000000, -0.0000000000000000000 ) ) ;
#35 = DIRECTION ( 'NONE',  ( 0.0000000000000000000, 0.0000000000000000000, 1.000000000000000000 ) ) ;
#36 = APPLICATION_PROTOCOL_DEFINITION ( 'draft international standard', 'automotive_design', 1998, #25 ) ;
#37 = CARTESIAN_POINT ( 'NONE',  ( 0.0000000000000000000, 2.669730022141230000E-014, -218.0000000000000000 ) ) ;
#38 = DIRECTION ( 'NONE',  ( -1.000000000000000000, -0.0000000000000000000, -0.0000000000000000000 ) ) ;
#39 = VERTEX_POINT ( 'NONE', #37 ) ;
#40 = CARTESIAN_POINT ( 'NONE',  ( 0.0000000000000000000, 0.0000000000000000000, 0.0000000000000000000 ) ) ;
#41 = PRODUCT_CONTEXT ( 'NONE', #25, 'mechanical' ) ;
#42 = DIRECTION ( 'NONE',  ( 0.0000000000000000000, 0.0000000000000000000, 1.000000000000000000 ) ) ;
#43 = DIRECTION ( 'NONE',  ( -1.000000000000000000, -0.0000000000000000000, -0.0000000000000000000 ) ) ;
#44 = SURFACE_STYLE_USAGE ( .BOTH. , #48 ) ;
#45 = DIRECTION ( 'NONE',  ( -1.000000000000000000, -0.0000000000000000000, -0.0000000000000000000 ) ) ;
#46 = DIRECTION ( 'NONE',  ( -1.000000000000000000, -0.0000000000000000000, -0.0000000000000000000 ) ) ;
#47 = DIRECTION ( 'NONE',  ( 0.0000000000000000000, 0.0000000000000000000, 1.000000000000000000 ) ) ;
#48 = SURFACE_SIDE_STYLE ('',( #110 ) ) ;
#49 = DIRECTION ( 'NONE',  ( -1.000000000000000000, -0.0000000000000000000, -0.0000000000000000000 ) ) ;
#50 = DIRECTION ( 'NONE',  ( 0.0000000000000000000, -1.000000000000000000, 0.0000000000000000000 ) ) ;
#51 = DIRECTION ( 'NONE',  ( 0.0000000000000000000, 0.0000000000000000000, -1.000000000000000000 ) ) ;
#52 =( NAMED_UNIT ( * ) PLANE_ANGLE_UNIT ( ) SI_UNIT ( $, .RADIAN. ) );
#53 = DIRECTION ( 'NONE',  ( 1.000000000000000000, 0.0000000000000000000, 0.0000000000000000000 ) ) ;
#54 = DIRECTION ( 'NONE',  ( 0.0000000000000000000, -1.224646799147349500E-016, 1.000000000000000000 ) ) ;
#55 = DIRECTION ( 'NONE',  ( 0.0000000000000000000, 0.0000000000000000000, 1.000000000000000000 ) ) ;
#56 = CARTESIAN_POINT ( 'NONE',  ( 0.0000000000000000000, 0.0000000000000000000, 219.2500000000000000 ) ) ;
#57 = CARTESIAN_POINT ( 'NONE',  ( 0.0000000000000000000, 2.685038107130571900E-014, -219.2500000000000000 ) ) ;
#58 = DIRECTION ( 'NONE',  ( -0.0000000000000000000, 1.000000000000000000, 1.224646799147353200E-016 ) ) ;
#59 = CARTESIAN_POINT ( 'NONE',  ( 0.0000000000000000000, 0.0000000000000000000, 219.2500000000000000 ) ) ;
#60 = CARTESIAN_POINT ( 'NONE',  ( 0.0000000000000000000, 0.0000000000000000000, 0.0000000000000000000 ) ) ;
#61 = CARTESIAN_POINT ( 'NONE',  ( 1.530808498934192800E-016, 0.0000000000000000000, 0.0000000000000000000 ) ) ;
#62 = CARTESIAN_POINT ( 'NONE',  ( 0.0000000000000000000, 0.0000000000000000000, 0.0000000000000000000 ) ) ;
#63 = DIRECTION ( 'NONE',  ( 0.0000000000000000000, 0.0000000000000000000, 1.000000000000000000 ) ) ;
#64 = SURFACE_STYLE_USAGE ( .BOTH. , #7 ) ;
#65 = APPLICATION_PROTOCOL_DEFINITION ( 'draft international standard', 'automotive_design', 1998, #66 ) ;
#66 = APPLICATION_CONTEXT ( 'automotive_design' ) ;
#67 = DIRECTION ( 'NONE',  ( 0.0000000000000000000, 0.0000000000000000000, 1.000000000000000000 ) ) ;
#68 = FILL_AREA_STYLE_COLOUR ( '', #120 ) ;
#69 = CARTESIAN_POINT ( 'NONE',  ( 0.0000000000000000000, 0.0000000000000000000, 0.0000000000000000000 ) ) ;
#70 = ADVANCED_FACE ( 'NONE', ( #132 ), #125, .T. ) ;
#71 = ADVANCED_FACE ( 'NONE', ( #152 ), #128, .T. ) ;
#72 = ADVANCED_FACE ( 'NONE', ( #130 ), #109, .T. ) ;
#73 = ADVANCED_FACE ( 'NONE', ( #124 ), #135, .T. ) ;
#74 = PRODUCT_DEFINITION ( 'UNKNOWN', '', #81, #104 ) ;
#75 = AXIS2_PLACEMENT_3D ( 'NONE', #59, #29, #32 ) ;
#76 = AXIS2_PLACEMENT_3D ( 'NONE', #60, #38, #63 ) ;
#77 = AXIS2_PLACEMENT_3D ( 'NONE', #18, #46, #31 ) ;
#78 = PRESENTATION_LAYER_ASSIGNMENT (  '', '', ( #93 ) ) ;
#79 = EDGE_CURVE ( 'NONE', #6, #19, #153, .T. ) ;
#80 = MECHANICAL_DESIGN_GEOMETRIC_PRESENTATION_REPRESENTATION (  '', ( #94 ), #116 ) ;
#81 = PRODUCT_DEFINITION_FORMATION_WITH_SPECIFIED_SOURCE ( 'ANY', '', #106, .NOT_KNOWN. ) ;
#82 = AXIS2_PLACEMENT_3D ( 'NONE', #9, #17, #54 ) ;
#83 = AXIS2_PLACEMENT_3D ( 'NONE', #62, #43, #42 ) ;
#84 = AXIS2_PLACEMENT_3D ( 'NONE', #27, #34, #67 ) ;
#85 = AXIS2_PLACEMENT_3D ( 'NONE', #56, #50, #51 ) ;
#86 = AXIS2_PLACEMENT_3D ( 'NONE', #57, #58, #12 ) ;
#87 = MECHANICAL_DESIGN_GEOMETRIC_PRESENTATION_REPRESENTATION (  '', ( #93 ), #113 ) ;
#88 = AXIS2_PLACEMENT_3D ( 'NONE', #69, #49, #35 ) ;
#89 = EDGE_CURVE ( 'NONE', #19, #6, #127, .T. ) ;
#90 = PRESENTATION_LAYER_ASSIGNMENT (  '', '', ( #94 ) ) ;
#91 = EDGE_CURVE ( 'NONE', #4, #6, #122, .T. ) ;
#92 = EDGE_CURVE ( 'NONE', #4, #39, #117, .T. ) ;
#93 = STYLED_ITEM ( 'NONE', ( #119 ), #158 ) ;
#94 = STYLED_ITEM ( 'NONE', ( #111 ), #154 ) ;
#95 = AXIS2_PLACEMENT_3D ( 'NONE', #40, #24, #53 ) ;
#96 = AXIS2_PLACEMENT_3D ( 'NONE', #61, #45, #55 ) ;
#97 = PRODUCT_RELATED_PRODUCT_CATEGORY ( 'part', '', ( #106 ) ) ;
#98 = EDGE_CURVE ( 'NONE', #39, #4, #115, .T. ) ;
#99 = AXIS2_PLACEMENT_3D ( 'NONE', #33, #30, #1 ) ;
#100 = EDGE_CURVE ( 'NONE', #19, #39, #133, .T. ) ;
#101 = AXIS2_PLACEMENT_3D ( 'NONE', #16, #21, #47 ) ;
#102 = EDGE_CURVE ( 'NONE', #39, #19, #123, .T. ) ;
#103 = EDGE_CURVE ( 'NONE', #6, #4, #112, .T. ) ;
#104 = PRODUCT_DEFINITION_CONTEXT ( 'detailed design', #66, 'design' ) ;
#105 = PRODUCT_DEFINITION_SHAPE ( 'NONE', 'NONE',  #74 ) ;
#106 = PRODUCT ( '602 DOR 400-S1', '602 DOR 400-S1', '', ( #41 ) ) ;
#107 = ORIENTED_EDGE ( 'NONE', *, *, #91, .T. ) ;
#108 = ORIENTED_EDGE ( 'NONE', *, *, #98, .T. ) ;
#109 = TOROIDAL_SURFACE ( 'NONE', #84, 219.2500000000000000, 1.250000000000000900 ) ;
#110 = SURFACE_STYLE_FILL_AREA ( #26 ) ;
#111 = PRESENTATION_STYLE_ASSIGNMENT (( #44 ) ) ;
#112 = CIRCLE ( 'NONE', #85, 1.250000000000001100 ) ;
#113 =( GEOMETRIC_REPRESENTATION_CONTEXT ( 3 ) GLOBAL_UNCERTAINTY_ASSIGNED_CONTEXT ( ( #157 ) ) GLOBAL_UNIT_ASSIGNED_CONTEXT ( ( #22, #8, #2 ) ) REPRESENTATION_CONTEXT ( 'NONE', 'WORKASPACE' ) );
#114 = ORIENTED_EDGE ( 'NONE', *, *, #92, .F. ) ;
#115 = CIRCLE ( 'NONE', #101, 218.0000000000000000 ) ;
#116 =( GEOMETRIC_REPRESENTATION_CONTEXT ( 3 ) GLOBAL_UNCERTAINTY_ASSIGNED_CONTEXT ( ( #156 ) ) GLOBAL_UNIT_ASSIGNED_CONTEXT ( ( #5, #15, #11 ) ) REPRESENTATION_CONTEXT ( 'NONE', 'WORKASPACE' ) );
#117 = CIRCLE ( 'NONE', #96, 218.0000000000000000 ) ;
#118 = EDGE_LOOP ( 'NONE', ( #129, #126, #144, #142 ) ) ;
#119 = PRESENTATION_STYLE_ASSIGNMENT (( #64 ) ) ;
#120 = COLOUR_RGB ( '',0.3843137254901960500, 0.3843137254901960500, 0.3843137254901960500 ) ;
#121 =( GEOMETRIC_REPRESENTATION_CONTEXT ( 3 ) GLOBAL_UNCERTAINTY_ASSIGNED_CONTEXT ( ( #155 ) ) GLOBAL_UNIT_ASSIGNED_CONTEXT ( ( #14, #52, #23 ) ) REPRESENTATION_CONTEXT ( 'NONE', 'WORKASPACE' ) );
#122 = CIRCLE ( 'NONE', #75, 1.250000000000001100 ) ;
#123 = CIRCLE ( 'NONE', #86, 1.250000000000001100 ) ;
#124 = FACE_OUTER_BOUND ( 'NONE', #137, .T. ) ;
#125 = TOROIDAL_SURFACE ( 'NONE', #88, 219.2500000000000000, 1.250000000000000900 ) ;
#126 = ORIENTED_EDGE ( 'NONE', *, *, #91, .F. ) ;
#127 = CIRCLE ( 'NONE', #99, 220.5000000000000000 ) ;
#128 = TOROIDAL_SURFACE ( 'NONE', #77, 219.2500000000000000, 1.250000000000000900 ) ;
#129 = ORIENTED_EDGE ( 'NONE', *, *, #79, .F. ) ;
#130 = FACE_OUTER_BOUND ( 'NONE', #118, .T. ) ;
#131 = CLOSED_SHELL ( 'NONE', ( #73, #71, #72, #70 ) ) ;
#132 = FACE_OUTER_BOUND ( 'NONE', #140, .T. ) ;
#133 = CIRCLE ( 'NONE', #82, 1.250000000000001100 ) ;
#134 = ORIENTED_EDGE ( 'NONE', *, *, #89, .F. ) ;
#135 = TOROIDAL_SURFACE ( 'NONE', #83, 219.2500000000000000, 1.250000000000000900 ) ;
#136 = ORIENTED_EDGE ( 'NONE', *, *, #89, .T. ) ;
#137 = EDGE_LOOP ( 'NONE', ( #145, #136, #139, #141 ) ) ;
#138 = ORIENTED_EDGE ( 'NONE', *, *, #100, .T. ) ;
#139 = ORIENTED_EDGE ( 'NONE', *, *, #103, .T. ) ;
#140 = EDGE_LOOP ( 'NONE', ( #134, #148, #108, #107 ) ) ;
#141 = ORIENTED_EDGE ( 'NONE', *, *, #98, .F. ) ;
#142 = ORIENTED_EDGE ( 'NONE', *, *, #102, .T. ) ;
#143 = COLOUR_RGB ( '',0.3843137254901960500, 0.3843137254901960500, 0.3843137254901960500 ) ;
#144 = ORIENTED_EDGE ( 'NONE', *, *, #92, .T. ) ;
#145 = ORIENTED_EDGE ( 'NONE', *, *, #100, .F. ) ;
#146 = ORIENTED_EDGE ( 'NONE', *, *, #79, .T. ) ;
#147 = SHAPE_DEFINITION_REPRESENTATION ( #105, #158 ) ;
#148 = ORIENTED_EDGE ( 'NONE', *, *, #102, .F. ) ;
#149 = SURFACE_STYLE_FILL_AREA ( #20 ) ;
#150 = ORIENTED_EDGE ( 'NONE', *, *, #103, .F. ) ;
#151 = EDGE_LOOP ( 'NONE', ( #150, #146, #138, #114 ) ) ;
#152 = FACE_OUTER_BOUND ( 'NONE', #151, .T. ) ;
#153 = CIRCLE ( 'NONE', #76, 220.5000000000000000 ) ;
#154 = MANIFOLD_SOLID_BREP ( 'Rotation1', #131 ) ;
#155 = UNCERTAINTY_MEASURE_WITH_UNIT (LENGTH_MEASURE( 1.000000000000000100E-005 ), #14, 'distance_accuracy_value', 'NONE');
#156 = UNCERTAINTY_MEASURE_WITH_UNIT (LENGTH_MEASURE( 1.000000000000000100E-005 ), #5, 'distance_accuracy_value', 'NONE');
#157 = UNCERTAINTY_MEASURE_WITH_UNIT (LENGTH_MEASURE( 1.000000000000000100E-005 ), #22, 'distance_accuracy_value', 'NONE');
#158 = ADVANCED_BREP_SHAPE_REPRESENTATION ( '602 DOR 400-S1', ( #154, #95 ), #121 ) ;
ENDSEC;
END-ISO-10303-21;
