ISO-10303-21;
HEADER;
FILE_DESCRIPTION (( 'STEP AP214' ),
    '1' );
FILE_NAME ('101DOR016-S1.step',
    '2017-07-06T09:25:43',
    ( 'install' ),
    ( '' ),
    'SwSTEP 2.0',
    'SolidWorks 2015',
    '' );
FILE_SCHEMA (( 'AUTOMOTIVE_DESIGN' ));
ENDSEC;

DATA;
#1 = ORIENTED_EDGE ( 'NONE', *, *, #88, .T. ) ;
#2 = TOROIDAL_SURFACE ( 'NONE', #20, 11.50000000000000000, 2.499999999999998700 ) ;
#3 = DIRECTION ( 'NONE',  ( -0.0000000000000000000, -0.0000000000000000000, 1.000000000000000000 ) ) ;
#4 = CARTESIAN_POINT ( 'NONE',  ( 0.0000000000000000000, 0.0000000000000000000, 0.0000000000000000000 ) ) ;
#5 = EDGE_LOOP ( 'NONE', ( #55, #80, #132, #54 ) ) ;
#6 = AXIS2_PLACEMENT_3D ( 'NONE', #38, #74, #112 ) ;
#7 = CARTESIAN_POINT ( 'NONE',  ( -9.000000000000001800, 1.102182119232617900E-015, -3.061616997868381700E-016 ) ) ;
#8 = CARTESIAN_POINT ( 'NONE',  ( 0.0000000000000000000, 0.0000000000000000000, 0.0000000000000000000 ) ) ;
#9 = CIRCLE ( 'NONE', #110, 13.99999999999999800 ) ;
#10 = CIRCLE ( 'NONE', #6, 2.499999999999998700 ) ;
#11 = ORIENTED_EDGE ( 'NONE', *, *, #116, .F. ) ;
#12 = ADVANCED_FACE ( 'NONE', ( #53 ), #117, .T. ) ;
#13 = STYLED_ITEM ( 'NONE', ( #29 ), #119 ) ;
#14 = AXIS2_PLACEMENT_3D ( 'NONE', #98, #126, #97 ) ;
#15 = CIRCLE ( 'NONE', #122, 2.499999999999998700 ) ;
#16 = DIRECTION ( 'NONE',  ( 1.000000000000000000, 0.0000000000000000000, 0.0000000000000000000 ) ) ;
#17 = DIRECTION ( 'NONE',  ( 0.0000000000000000000, 0.0000000000000000000, -1.000000000000000000 ) ) ;
#18 = APPLICATION_CONTEXT ( 'automotive_design' ) ;
#19 = PRESENTATION_LAYER_ASSIGNMENT (  '', '', ( #13 ) ) ;
#20 = AXIS2_PLACEMENT_3D ( 'NONE', #139, #3, #101 ) ;
#21 =( LENGTH_UNIT ( ) NAMED_UNIT ( * ) SI_UNIT ( .MILLI., .METRE. ) );
#22 = FACE_OUTER_BOUND ( 'NONE', #100, .T. ) ;
#23 = SURFACE_SIDE_STYLE ('',( #49 ) ) ;
#24 = CIRCLE ( 'NONE', #148, 13.99999999999999800 ) ;
#25 = DIRECTION ( 'NONE',  ( 1.000000000000000000, 0.0000000000000000000, 0.0000000000000000000 ) ) ;
#26 = ORIENTED_EDGE ( 'NONE', *, *, #120, .F. ) ;
#27 = DIRECTION ( 'NONE',  ( 0.0000000000000000000, -1.000000000000000000, 0.0000000000000000000 ) ) ;
#28 = MECHANICAL_DESIGN_GEOMETRIC_PRESENTATION_REPRESENTATION (  '', ( #13 ), #33 ) ;
#29 = PRESENTATION_STYLE_ASSIGNMENT (( #153 ) ) ;
#30 = UNCERTAINTY_MEASURE_WITH_UNIT (LENGTH_MEASURE( 1.000000000000000100E-005 ), #127, 'distance_accuracy_value', 'NONE');
#31 = CIRCLE ( 'NONE', #102, 2.499999999999998700 ) ;
#32 = ORIENTED_EDGE ( 'NONE', *, *, #94, .F. ) ;
#33 =( GEOMETRIC_REPRESENTATION_CONTEXT ( 3 ) GLOBAL_UNCERTAINTY_ASSIGNED_CONTEXT ( ( #45 ) ) GLOBAL_UNIT_ASSIGNED_CONTEXT ( ( #47, #34, #108 ) ) REPRESENTATION_CONTEXT ( 'NONE', 'WORKASPACE' ) );
#34 =( NAMED_UNIT ( * ) PLANE_ANGLE_UNIT ( ) SI_UNIT ( $, .RADIAN. ) );
#35 = PRODUCT_DEFINITION_CONTEXT ( 'detailed design', #70, 'design' ) ;
#36 = CARTESIAN_POINT ( 'NONE',  ( 0.0000000000000000000, 0.0000000000000000000, 0.0000000000000000000 ) ) ;
#37 = CARTESIAN_POINT ( 'NONE',  ( -13.99999999999999800, 1.714505518806294400E-015, 0.0000000000000000000 ) ) ;
#38 = CARTESIAN_POINT ( 'NONE',  ( 11.50000000000000000, 0.0000000000000000000, 0.0000000000000000000 ) ) ;
#39 = TOROIDAL_SURFACE ( 'NONE', #42, 11.50000000000000000, 2.499999999999998700 ) ;
#40 = FACE_OUTER_BOUND ( 'NONE', #58, .T. ) ;
#41 = DIRECTION ( 'NONE',  ( -0.0000000000000000000, -0.0000000000000000000, 1.000000000000000000 ) ) ;
#42 = AXIS2_PLACEMENT_3D ( 'NONE', #145, #129, #147 ) ;
#43 = TOROIDAL_SURFACE ( 'NONE', #84, 11.50000000000000000, 2.499999999999998700 ) ;
#44 = DIRECTION ( 'NONE',  ( -0.0000000000000000000, -0.0000000000000000000, 1.000000000000000000 ) ) ;
#45 = UNCERTAINTY_MEASURE_WITH_UNIT (LENGTH_MEASURE( 1.000000000000000100E-005 ), #47, 'distance_accuracy_value', 'NONE');
#46 = DIRECTION ( 'NONE',  ( 1.000000000000000000, 0.0000000000000000000, 0.0000000000000000000 ) ) ;
#47 =( LENGTH_UNIT ( ) NAMED_UNIT ( * ) SI_UNIT ( .MILLI., .METRE. ) );
#48 = COLOUR_RGB ( '',0.6980392156862744700, 0.6980392156862744700, 0.6980392156862744700 ) ;
#49 = SURFACE_STYLE_FILL_AREA ( #107 ) ;
#50 = STYLED_ITEM ( 'NONE', ( #52 ), #68 ) ;
#51 = PRODUCT_DEFINITION_SHAPE ( 'NONE', 'NONE',  #66 ) ;
#52 = PRESENTATION_STYLE_ASSIGNMENT (( #92 ) ) ;
#53 = FACE_OUTER_BOUND ( 'NONE', #5, .T. ) ;
#54 = ORIENTED_EDGE ( 'NONE', *, *, #149, .F. ) ;
#55 = ORIENTED_EDGE ( 'NONE', *, *, #88, .F. ) ;
#56 = AXIS2_PLACEMENT_3D ( 'NONE', #86, #154, #135 ) ;
#57 = ADVANCED_FACE ( 'NONE', ( #67 ), #2, .T. ) ;
#58 = EDGE_LOOP ( 'NONE', ( #134, #133, #121, #104 ) ) ;
#59 = CARTESIAN_POINT ( 'NONE',  ( 13.99999999999999800, 0.0000000000000000000, 0.0000000000000000000 ) ) ;
#60 = APPLICATION_PROTOCOL_DEFINITION ( 'draft international standard', 'automotive_design', 1998, #70 ) ;
#61 = PRESENTATION_LAYER_ASSIGNMENT (  '', '', ( #50 ) ) ;
#62 = DIRECTION ( 'NONE',  ( -1.000000000000000000, 1.224646799147353500E-016, 0.0000000000000000000 ) ) ;
#63 = DIRECTION ( 'NONE',  ( -0.0000000000000000000, -0.0000000000000000000, 1.000000000000000000 ) ) ;
#64 = EDGE_LOOP ( 'NONE', ( #26, #144, #118, #114 ) ) ;
#65 = ADVANCED_FACE ( 'NONE', ( #40 ), #39, .T. ) ;
#66 = PRODUCT_DEFINITION ( 'UNKNOWN', '', #73, #35 ) ;
#67 = FACE_OUTER_BOUND ( 'NONE', #64, .T. ) ;
#68 = MANIFOLD_SOLID_BREP ( 'Rotation1', #125 ) ;
#69 = MECHANICAL_DESIGN_GEOMETRIC_PRESENTATION_REPRESENTATION (  '', ( #50 ), #78 ) ;
#70 = APPLICATION_CONTEXT ( 'automotive_design' ) ;
#71 = APPLICATION_PROTOCOL_DEFINITION ( 'draft international standard', 'automotive_design', 1998, #18 ) ;
#72 = FILL_AREA_STYLE ('',( #137 ) ) ;
#73 = PRODUCT_DEFINITION_FORMATION_WITH_SPECIFIED_SOURCE ( 'ANY', '', #76, .NOT_KNOWN. ) ;
#74 = DIRECTION ( 'NONE',  ( 0.0000000000000000000, -1.000000000000000000, 0.0000000000000000000 ) ) ;
#75 = CIRCLE ( 'NONE', #90, 9.000000000000001800 ) ;
#76 = PRODUCT ( '101DOR016-S1', '101DOR016-S1', '', ( #111 ) ) ;
#77 = COLOUR_RGB ( '',0.6980392156862744700, 0.6980392156862744700, 0.6980392156862744700 ) ;
#78 =( GEOMETRIC_REPRESENTATION_CONTEXT ( 3 ) GLOBAL_UNCERTAINTY_ASSIGNED_CONTEXT ( ( #30 ) ) GLOBAL_UNIT_ASSIGNED_CONTEXT ( ( #127, #152, #115 ) ) REPRESENTATION_CONTEXT ( 'NONE', 'WORKASPACE' ) );
#79 = CARTESIAN_POINT ( 'NONE',  ( -11.50000000000000000, 1.408343819019456200E-015, 0.0000000000000000000 ) ) ;
#80 = ORIENTED_EDGE ( 'NONE', *, *, #158, .T. ) ;
#81 = PRODUCT_RELATED_PRODUCT_CATEGORY ( 'part', '', ( #76 ) ) ;
#82 = CARTESIAN_POINT ( 'NONE',  ( -11.50000000000000000, 1.408343819019456200E-015, 0.0000000000000000000 ) ) ;
#83 = ADVANCED_FACE ( 'NONE', ( #22 ), #43, .T. ) ;
#84 = AXIS2_PLACEMENT_3D ( 'NONE', #36, #124, #156 ) ;
#85 = SURFACE_SIDE_STYLE ('',( #105 ) ) ;
#86 = CARTESIAN_POINT ( 'NONE',  ( 0.0000000000000000000, 0.0000000000000000000, 0.0000000000000000000 ) ) ;
#87 = VERTEX_POINT ( 'NONE', #109 ) ;
#88 = EDGE_CURVE ( 'NONE', #103, #87, #10, .T. ) ;
#89 = CIRCLE ( 'NONE', #140, 9.000000000000001800 ) ;
#90 = AXIS2_PLACEMENT_3D ( 'NONE', #150, #41, #16 ) ;
#91 = UNCERTAINTY_MEASURE_WITH_UNIT (LENGTH_MEASURE( 1.000000000000000100E-005 ), #21, 'distance_accuracy_value', 'NONE');
#92 = SURFACE_STYLE_USAGE ( .BOTH. , #23 ) ;
#93 = VERTEX_POINT ( 'NONE', #7 ) ;
#94 = EDGE_CURVE ( 'NONE', #93, #87, #75, .T. ) ;
#95 =( NAMED_UNIT ( * ) SI_UNIT ( $, .STERADIAN. ) SOLID_ANGLE_UNIT ( ) );
#96 = DIRECTION ( 'NONE',  ( 1.000000000000000000, 0.0000000000000000000, 0.0000000000000000000 ) ) ;
#97 = DIRECTION ( 'NONE',  ( 1.000000000000000000, 0.0000000000000000000, 0.0000000000000000000 ) ) ;
#98 = CARTESIAN_POINT ( 'NONE',  ( 0.0000000000000000000, 0.0000000000000000000, 0.0000000000000000000 ) ) ;
#99 = DIRECTION ( 'NONE',  ( 1.224646799147353200E-016, 1.000000000000000000, 0.0000000000000000000 ) ) ;
#100 = EDGE_LOOP ( 'NONE', ( #11, #146, #1, #32 ) ) ;
#101 = DIRECTION ( 'NONE',  ( 1.000000000000000000, 0.0000000000000000000, 0.0000000000000000000 ) ) ;
#102 = AXIS2_PLACEMENT_3D ( 'NONE', #79, #99, #136 ) ;
#103 = VERTEX_POINT ( 'NONE', #59 ) ;
#104 = ORIENTED_EDGE ( 'NONE', *, *, #131, .T. ) ;
#105 = SURFACE_STYLE_FILL_AREA ( #72 ) ;
#106 = VERTEX_POINT ( 'NONE', #37 ) ;
#107 = FILL_AREA_STYLE ('',( #123 ) ) ;
#108 =( NAMED_UNIT ( * ) SI_UNIT ( $, .STERADIAN. ) SOLID_ANGLE_UNIT ( ) );
#109 = CARTESIAN_POINT ( 'NONE',  ( 9.000000000000001800, 0.0000000000000000000, -3.061616997868381700E-016 ) ) ;
#110 = AXIS2_PLACEMENT_3D ( 'NONE', #8, #44, #25 ) ;
#111 = PRODUCT_CONTEXT ( 'NONE', #18, 'mechanical' ) ;
#112 = DIRECTION ( 'NONE',  ( 0.0000000000000000000, 0.0000000000000000000, -1.000000000000000000 ) ) ;
#113 =( NAMED_UNIT ( * ) PLANE_ANGLE_UNIT ( ) SI_UNIT ( $, .RADIAN. ) );
#114 = ORIENTED_EDGE ( 'NONE', *, *, #142, .T. ) ;
#115 =( NAMED_UNIT ( * ) SI_UNIT ( $, .STERADIAN. ) SOLID_ANGLE_UNIT ( ) );
#116 = EDGE_CURVE ( 'NONE', #106, #93, #31, .T. ) ;
#117 = TOROIDAL_SURFACE ( 'NONE', #14, 11.50000000000000000, 2.499999999999998700 ) ;
#118 = ORIENTED_EDGE ( 'NONE', *, *, #94, .T. ) ;
#119 = ADVANCED_BREP_SHAPE_REPRESENTATION ( '101DOR016-S1', ( #68, #56 ), #157 ) ;
#120 = EDGE_CURVE ( 'NONE', #106, #103, #9, .T. ) ;
#121 = ORIENTED_EDGE ( 'NONE', *, *, #149, .T. ) ;
#122 = AXIS2_PLACEMENT_3D ( 'NONE', #82, #128, #62 ) ;
#123 = FILL_AREA_STYLE_COLOUR ( '', #48 ) ;
#124 = DIRECTION ( 'NONE',  ( -0.0000000000000000000, -0.0000000000000000000, 1.000000000000000000 ) ) ;
#125 = CLOSED_SHELL ( 'NONE', ( #83, #12, #65, #57 ) ) ;
#126 = DIRECTION ( 'NONE',  ( -0.0000000000000000000, -0.0000000000000000000, 1.000000000000000000 ) ) ;
#127 =( LENGTH_UNIT ( ) NAMED_UNIT ( * ) SI_UNIT ( .MILLI., .METRE. ) );
#128 = DIRECTION ( 'NONE',  ( 1.224646799147353200E-016, 1.000000000000000000, 0.0000000000000000000 ) ) ;
#129 = DIRECTION ( 'NONE',  ( -0.0000000000000000000, -0.0000000000000000000, 1.000000000000000000 ) ) ;
#130 = AXIS2_PLACEMENT_3D ( 'NONE', #143, #27, #17 ) ;
#131 = EDGE_CURVE ( 'NONE', #93, #106, #15, .T. ) ;
#132 = ORIENTED_EDGE ( 'NONE', *, *, #116, .T. ) ;
#133 = ORIENTED_EDGE ( 'NONE', *, *, #142, .F. ) ;
#134 = ORIENTED_EDGE ( 'NONE', *, *, #158, .F. ) ;
#135 = DIRECTION ( 'NONE',  ( 1.000000000000000000, 0.0000000000000000000, 0.0000000000000000000 ) ) ;
#136 = DIRECTION ( 'NONE',  ( -1.000000000000000000, 1.224646799147353500E-016, 0.0000000000000000000 ) ) ;
#137 = FILL_AREA_STYLE_COLOUR ( '', #77 ) ;
#138 = SHAPE_DEFINITION_REPRESENTATION ( #51, #119 ) ;
#139 = CARTESIAN_POINT ( 'NONE',  ( 0.0000000000000000000, 0.0000000000000000000, 0.0000000000000000000 ) ) ;
#140 = AXIS2_PLACEMENT_3D ( 'NONE', #141, #155, #46 ) ;
#141 = CARTESIAN_POINT ( 'NONE',  ( 0.0000000000000000000, 0.0000000000000000000, -3.061616997868381700E-016 ) ) ;
#142 = EDGE_CURVE ( 'NONE', #87, #103, #151, .T. ) ;
#143 = CARTESIAN_POINT ( 'NONE',  ( 11.50000000000000000, 0.0000000000000000000, 0.0000000000000000000 ) ) ;
#144 = ORIENTED_EDGE ( 'NONE', *, *, #131, .F. ) ;
#145 = CARTESIAN_POINT ( 'NONE',  ( 0.0000000000000000000, 0.0000000000000000000, 0.0000000000000000000 ) ) ;
#146 = ORIENTED_EDGE ( 'NONE', *, *, #120, .T. ) ;
#147 = DIRECTION ( 'NONE',  ( 1.000000000000000000, 0.0000000000000000000, 0.0000000000000000000 ) ) ;
#148 = AXIS2_PLACEMENT_3D ( 'NONE', #4, #63, #96 ) ;
#149 = EDGE_CURVE ( 'NONE', #87, #93, #89, .T. ) ;
#150 = CARTESIAN_POINT ( 'NONE',  ( 0.0000000000000000000, 0.0000000000000000000, -3.061616997868381700E-016 ) ) ;
#151 = CIRCLE ( 'NONE', #130, 2.499999999999998700 ) ;
#152 =( NAMED_UNIT ( * ) PLANE_ANGLE_UNIT ( ) SI_UNIT ( $, .RADIAN. ) );
#153 = SURFACE_STYLE_USAGE ( .BOTH. , #85 ) ;
#154 = DIRECTION ( 'NONE',  ( 0.0000000000000000000, 0.0000000000000000000, 1.000000000000000000 ) ) ;
#155 = DIRECTION ( 'NONE',  ( -0.0000000000000000000, -0.0000000000000000000, 1.000000000000000000 ) ) ;
#156 = DIRECTION ( 'NONE',  ( 1.000000000000000000, 0.0000000000000000000, 0.0000000000000000000 ) ) ;
#157 =( GEOMETRIC_REPRESENTATION_CONTEXT ( 3 ) GLOBAL_UNCERTAINTY_ASSIGNED_CONTEXT ( ( #91 ) ) GLOBAL_UNIT_ASSIGNED_CONTEXT ( ( #21, #113, #95 ) ) REPRESENTATION_CONTEXT ( 'NONE', 'WORKASPACE' ) );
#158 = EDGE_CURVE ( 'NONE', #103, #106, #24, .T. ) ;
ENDSEC;
END-ISO-10303-21;
