ISO-10303-21;
HEADER;
FILE_DESCRIPTION (( 'STEP AP214' ),
    '1' );
FILE_NAME ('306DOR080-S1.step',
    '2017-07-07T05:02:32',
    ( 'install' ),
    ( '' ),
    'SwSTEP 2.0',
    'SolidWorks 2015',
    '' );
FILE_SCHEMA (( 'AUTOMOTIVE_DESIGN' ));
ENDSEC;

DATA;
#1 = ORIENTED_EDGE ( 'NONE', *, *, #5, .F. ) ;
#2 = DIRECTION ( 'NONE',  ( -1.000000000000000000, 0.0000000000000000000, 0.0000000000000000000 ) ) ;
#3 = CARTESIAN_POINT ( 'NONE',  ( 0.0000000000000000000, 0.0000000000000000000, 0.0000000000000000000 ) ) ;
#4 = ADVANCED_FACE ( 'NONE', ( #36 ), #124, .T. ) ;
#5 = EDGE_CURVE ( 'NONE', #55, #96, #118, .T. ) ;
#6 = DIRECTION ( 'NONE',  ( 1.000000000000000000, 0.0000000000000000000, 0.0000000000000000000 ) ) ;
#7 =( NAMED_UNIT ( * ) SI_UNIT ( $, .STERADIAN. ) SOLID_ANGLE_UNIT ( ) );
#8 = ORIENTED_EDGE ( 'NONE', *, *, #33, .F. ) ;
#9 =( NAMED_UNIT ( * ) SI_UNIT ( $, .STERADIAN. ) SOLID_ANGLE_UNIT ( ) );
#10 = AXIS2_PLACEMENT_3D ( 'NONE', #112, #34, #126 ) ;
#11 = CARTESIAN_POINT ( 'NONE',  ( -44.13499999999999800, 0.0000000000000000000, 3.263683719727700000E-016 ) ) ;
#12 = VERTEX_POINT ( 'NONE', #11 ) ;
#13 = ORIENTED_EDGE ( 'NONE', *, *, #141, .T. ) ;
#14 = EDGE_LOOP ( 'NONE', ( #1, #89, #101, #54 ) ) ;
#15 =( LENGTH_UNIT ( ) NAMED_UNIT ( * ) SI_UNIT ( .MILLI., .METRE. ) );
#16 = SURFACE_STYLE_USAGE ( .BOTH. , #122 ) ;
#17 = CARTESIAN_POINT ( 'NONE',  ( 46.80000000000000400, 5.731347020009613100E-015, 0.0000000000000000000 ) ) ;
#18 = DIRECTION ( 'NONE',  ( 0.0000000000000000000, 0.0000000000000000000, 1.000000000000000000 ) ) ;
#19 = AXIS2_PLACEMENT_3D ( 'NONE', #17, #128, #127 ) ;
#20 = DIRECTION ( 'NONE',  ( -0.0000000000000000000, -0.0000000000000000000, -1.000000000000000000 ) ) ;
#21 = APPLICATION_PROTOCOL_DEFINITION ( 'draft international standard', 'automotive_design', 1998, #99 ) ;
#22 = APPLICATION_CONTEXT ( 'automotive_design' ) ;
#23 = FILL_AREA_STYLE ('',( #114 ) ) ;
#24 = UNCERTAINTY_MEASURE_WITH_UNIT (LENGTH_MEASURE( 1.000000000000000100E-005 ), #29, 'distance_accuracy_value', 'NONE');
#25 = SURFACE_SIDE_STYLE ('',( #97 ) ) ;
#26 = SURFACE_STYLE_USAGE ( .BOTH. , #25 ) ;
#27 = DIRECTION ( 'NONE',  ( -0.0000000000000000000, -0.0000000000000000000, -1.000000000000000000 ) ) ;
#28 = ORIENTED_EDGE ( 'NONE', *, *, #57, .F. ) ;
#29 =( LENGTH_UNIT ( ) NAMED_UNIT ( * ) SI_UNIT ( .MILLI., .METRE. ) );
#30 =( NAMED_UNIT ( * ) PLANE_ANGLE_UNIT ( ) SI_UNIT ( $, .RADIAN. ) );
#31 = CARTESIAN_POINT ( 'NONE',  ( 49.46500000000000300, 6.057715391982383200E-015, 0.0000000000000000000 ) ) ;
#32 = PRESENTATION_LAYER_ASSIGNMENT (  '', '', ( #67 ) ) ;
#33 = EDGE_CURVE ( 'NONE', #55, #110, #44, .T. ) ;
#34 = DIRECTION ( 'NONE',  ( -1.224646799147353200E-016, 1.000000000000000000, 0.0000000000000000000 ) ) ;
#35 = AXIS2_PLACEMENT_3D ( 'NONE', #155, #38, #78 ) ;
#36 = FACE_OUTER_BOUND ( 'NONE', #14, .T. ) ;
#37 = DIRECTION ( 'NONE',  ( -1.000000000000000000, 0.0000000000000000000, 0.0000000000000000000 ) ) ;
#38 = DIRECTION ( 'NONE',  ( -0.0000000000000000000, -0.0000000000000000000, -1.000000000000000000 ) ) ;
#39 = DIRECTION ( 'NONE',  ( -0.0000000000000000000, -0.0000000000000000000, -1.000000000000000000 ) ) ;
#40 = CARTESIAN_POINT ( 'NONE',  ( -46.80000000000000400, 0.0000000000000000000, 0.0000000000000000000 ) ) ;
#41 = MECHANICAL_DESIGN_GEOMETRIC_PRESENTATION_REPRESENTATION (  '', ( #67 ), #121 ) ;
#42 =( GEOMETRIC_REPRESENTATION_CONTEXT ( 3 ) GLOBAL_UNCERTAINTY_ASSIGNED_CONTEXT ( ( #142 ) ) GLOBAL_UNIT_ASSIGNED_CONTEXT ( ( #86, #148, #7 ) ) REPRESENTATION_CONTEXT ( 'NONE', 'WORKASPACE' ) );
#43 = CARTESIAN_POINT ( 'NONE',  ( -49.46500000000000300, 0.0000000000000000000, 0.0000000000000000000 ) ) ;
#44 = CIRCLE ( 'NONE', #10, 2.665000000000000900 ) ;
#45 = EDGE_LOOP ( 'NONE', ( #109, #13, #134, #28 ) ) ;
#46 = DIRECTION ( 'NONE',  ( -1.000000000000000000, 0.0000000000000000000, 0.0000000000000000000 ) ) ;
#47 = DIRECTION ( 'NONE',  ( 0.0000000000000000000, 0.0000000000000000000, -1.000000000000000000 ) ) ;
#48 = COLOUR_RGB ( '',0.3843137254901960500, 0.3843137254901960500, 0.3843137254901960500 ) ;
#49 = SURFACE_STYLE_FILL_AREA ( #71 ) ;
#50 = EDGE_CURVE ( 'NONE', #96, #12, #149, .T. ) ;
#51 = AXIS2_PLACEMENT_3D ( 'NONE', #107, #137, #56 ) ;
#52 = CIRCLE ( 'NONE', #19, 2.665000000000000900 ) ;
#53 =( NAMED_UNIT ( * ) SI_UNIT ( $, .STERADIAN. ) SOLID_ANGLE_UNIT ( ) );
#54 = ORIENTED_EDGE ( 'NONE', *, *, #88, .T. ) ;
#55 = VERTEX_POINT ( 'NONE', #31 ) ;
#56 = DIRECTION ( 'NONE',  ( -1.000000000000000000, 0.0000000000000000000, 0.0000000000000000000 ) ) ;
#57 = EDGE_CURVE ( 'NONE', #12, #110, #146, .T. ) ;
#58 = AXIS2_PLACEMENT_3D ( 'NONE', #65, #39, #76 ) ;
#59 = CARTESIAN_POINT ( 'NONE',  ( 0.0000000000000000000, 0.0000000000000000000, 0.0000000000000000000 ) ) ;
#60 = ADVANCED_FACE ( 'NONE', ( #90 ), #133, .T. ) ;
#61 = MANIFOLD_SOLID_BREP ( 'Rotation1', #68 ) ;
#62 = CIRCLE ( 'NONE', #100, 2.665000000000001800 ) ;
#63 = CARTESIAN_POINT ( 'NONE',  ( -46.80000000000000400, 0.0000000000000000000, 0.0000000000000000000 ) ) ;
#64 = ADVANCED_BREP_SHAPE_REPRESENTATION ( '306DOR080-S1', ( #61, #73 ), #42 ) ;
#65 = CARTESIAN_POINT ( 'NONE',  ( 0.0000000000000000000, 0.0000000000000000000, 3.263683719727698600E-016 ) ) ;
#66 = PRODUCT_DEFINITION_SHAPE ( 'NONE', 'NONE',  #77 ) ;
#67 = STYLED_ITEM ( 'NONE', ( #91 ), #64 ) ;
#68 = CLOSED_SHELL ( 'NONE', ( #60, #113, #104, #4 ) ) ;
#69 = PRESENTATION_STYLE_ASSIGNMENT (( #16 ) ) ;
#70 =( NAMED_UNIT ( * ) PLANE_ANGLE_UNIT ( ) SI_UNIT ( $, .RADIAN. ) );
#71 = FILL_AREA_STYLE ('',( #95 ) ) ;
#72 = ORIENTED_EDGE ( 'NONE', *, *, #57, .T. ) ;
#73 = AXIS2_PLACEMENT_3D ( 'NONE', #84, #18, #6 ) ;
#74 = AXIS2_PLACEMENT_3D ( 'NONE', #157, #131, #46 ) ;
#75 = CIRCLE ( 'NONE', #145, 49.46500000000000300 ) ;
#76 = DIRECTION ( 'NONE',  ( -1.000000000000000000, 0.0000000000000000000, 0.0000000000000000000 ) ) ;
#77 = PRODUCT_DEFINITION ( 'UNKNOWN', '', #144, #129 ) ;
#78 = DIRECTION ( 'NONE',  ( -1.000000000000000000, 0.0000000000000000000, 0.0000000000000000000 ) ) ;
#79 = DIRECTION ( 'NONE',  ( -0.0000000000000000000, -0.0000000000000000000, -1.000000000000000000 ) ) ;
#80 = STYLED_ITEM ( 'NONE', ( #69 ), #61 ) ;
#81 = CARTESIAN_POINT ( 'NONE',  ( 0.0000000000000000000, 0.0000000000000000000, 0.0000000000000000000 ) ) ;
#82 = FACE_OUTER_BOUND ( 'NONE', #45, .T. ) ;
#83 = PRODUCT_CONTEXT ( 'NONE', #22, 'mechanical' ) ;
#84 = CARTESIAN_POINT ( 'NONE',  ( 0.0000000000000000000, 0.0000000000000000000, 0.0000000000000000000 ) ) ;
#85 = FACE_OUTER_BOUND ( 'NONE', #119, .T. ) ;
#86 =( LENGTH_UNIT ( ) NAMED_UNIT ( * ) SI_UNIT ( .MILLI., .METRE. ) );
#87 = MECHANICAL_DESIGN_GEOMETRIC_PRESENTATION_REPRESENTATION (  '', ( #80 ), #98 ) ;
#88 = EDGE_CURVE ( 'NONE', #12, #96, #62, .T. ) ;
#89 = ORIENTED_EDGE ( 'NONE', *, *, #143, .F. ) ;
#90 = FACE_OUTER_BOUND ( 'NONE', #108, .T. ) ;
#91 = PRESENTATION_STYLE_ASSIGNMENT (( #26 ) ) ;
#92 = PRESENTATION_LAYER_ASSIGNMENT (  '', '', ( #80 ) ) ;
#93 = AXIS2_PLACEMENT_3D ( 'NONE', #40, #135, #151 ) ;
#94 = CARTESIAN_POINT ( 'NONE',  ( 0.0000000000000000000, 0.0000000000000000000, 0.0000000000000000000 ) ) ;
#95 = FILL_AREA_STYLE_COLOUR ( '', #48 ) ;
#96 = VERTEX_POINT ( 'NONE', #43 ) ;
#97 = SURFACE_STYLE_FILL_AREA ( #23 ) ;
#98 =( GEOMETRIC_REPRESENTATION_CONTEXT ( 3 ) GLOBAL_UNCERTAINTY_ASSIGNED_CONTEXT ( ( #147 ) ) GLOBAL_UNIT_ASSIGNED_CONTEXT ( ( #15, #70, #9 ) ) REPRESENTATION_CONTEXT ( 'NONE', 'WORKASPACE' ) );
#99 = APPLICATION_CONTEXT ( 'automotive_design' ) ;
#100 = AXIS2_PLACEMENT_3D ( 'NONE', #63, #132, #47 ) ;
#101 = ORIENTED_EDGE ( 'NONE', *, *, #152, .T. ) ;
#102 = ORIENTED_EDGE ( 'NONE', *, *, #141, .F. ) ;
#103 = CARTESIAN_POINT ( 'NONE',  ( 44.13499999999999800, 5.404978648036843100E-015, 0.0000000000000000000 ) ) ;
#104 = ADVANCED_FACE ( 'NONE', ( #85 ), #105, .T. ) ;
#105 = TOROIDAL_SURFACE ( 'NONE', #153, 46.80000000000000400, 2.665000000000001800 ) ;
#106 = DIRECTION ( 'NONE',  ( -0.0000000000000000000, -0.0000000000000000000, -1.000000000000000000 ) ) ;
#107 = CARTESIAN_POINT ( 'NONE',  ( 0.0000000000000000000, 0.0000000000000000000, 0.0000000000000000000 ) ) ;
#108 = EDGE_LOOP ( 'NONE', ( #8, #150, #136, #120 ) ) ;
#109 = ORIENTED_EDGE ( 'NONE', *, *, #50, .F. ) ;
#110 = VERTEX_POINT ( 'NONE', #103 ) ;
#111 = DIRECTION ( 'NONE',  ( -1.000000000000000000, 0.0000000000000000000, 0.0000000000000000000 ) ) ;
#112 = CARTESIAN_POINT ( 'NONE',  ( 46.80000000000000400, 5.731347020009613100E-015, 0.0000000000000000000 ) ) ;
#113 = ADVANCED_FACE ( 'NONE', ( #82 ), #158, .T. ) ;
#114 = FILL_AREA_STYLE_COLOUR ( '', #125 ) ;
#115 = APPLICATION_PROTOCOL_DEFINITION ( 'draft international standard', 'automotive_design', 1998, #22 ) ;
#116 = AXIS2_PLACEMENT_3D ( 'NONE', #94, #106, #37 ) ;
#117 = CIRCLE ( 'NONE', #58, 44.13499999999999800 ) ;
#118 = CIRCLE ( 'NONE', #116, 49.46500000000000300 ) ;
#119 = EDGE_LOOP ( 'NONE', ( #102, #154, #72, #130 ) ) ;
#120 = ORIENTED_EDGE ( 'NONE', *, *, #152, .F. ) ;
#121 =( GEOMETRIC_REPRESENTATION_CONTEXT ( 3 ) GLOBAL_UNCERTAINTY_ASSIGNED_CONTEXT ( ( #24 ) ) GLOBAL_UNIT_ASSIGNED_CONTEXT ( ( #29, #30, #53 ) ) REPRESENTATION_CONTEXT ( 'NONE', 'WORKASPACE' ) );
#122 = SURFACE_SIDE_STYLE ('',( #49 ) ) ;
#123 = AXIS2_PLACEMENT_3D ( 'NONE', #59, #20, #111 ) ;
#124 = TOROIDAL_SURFACE ( 'NONE', #51, 46.80000000000000400, 2.665000000000001800 ) ;
#125 = COLOUR_RGB ( '',0.3843137254901960500, 0.3843137254901960500, 0.3843137254901960500 ) ;
#126 = DIRECTION ( 'NONE',  ( -1.000000000000000000, -1.224646799147354400E-016, 0.0000000000000000000 ) ) ;
#127 = DIRECTION ( 'NONE',  ( -1.000000000000000000, -1.224646799147354400E-016, 0.0000000000000000000 ) ) ;
#128 = DIRECTION ( 'NONE',  ( -1.224646799147353200E-016, 1.000000000000000000, 0.0000000000000000000 ) ) ;
#129 = PRODUCT_DEFINITION_CONTEXT ( 'detailed design', #99, 'design' ) ;
#130 = ORIENTED_EDGE ( 'NONE', *, *, #143, .T. ) ;
#131 = DIRECTION ( 'NONE',  ( -0.0000000000000000000, -0.0000000000000000000, -1.000000000000000000 ) ) ;
#132 = DIRECTION ( 'NONE',  ( 0.0000000000000000000, -1.000000000000000000, 0.0000000000000000000 ) ) ;
#133 = TOROIDAL_SURFACE ( 'NONE', #123, 46.80000000000000400, 2.665000000000001800 ) ;
#134 = ORIENTED_EDGE ( 'NONE', *, *, #33, .T. ) ;
#135 = DIRECTION ( 'NONE',  ( 0.0000000000000000000, -1.000000000000000000, 0.0000000000000000000 ) ) ;
#136 = ORIENTED_EDGE ( 'NONE', *, *, #50, .T. ) ;
#137 = DIRECTION ( 'NONE',  ( -0.0000000000000000000, -0.0000000000000000000, -1.000000000000000000 ) ) ;
#138 = DIRECTION ( 'NONE',  ( -1.000000000000000000, 0.0000000000000000000, 0.0000000000000000000 ) ) ;
#139 = PRODUCT_RELATED_PRODUCT_CATEGORY ( 'part', '', ( #156 ) ) ;
#140 = SHAPE_DEFINITION_REPRESENTATION ( #66, #64 ) ;
#141 = EDGE_CURVE ( 'NONE', #96, #55, #75, .T. ) ;
#142 = UNCERTAINTY_MEASURE_WITH_UNIT (LENGTH_MEASURE( 1.000000000000000100E-005 ), #86, 'distance_accuracy_value', 'NONE');
#143 = EDGE_CURVE ( 'NONE', #110, #55, #52, .T. ) ;
#144 = PRODUCT_DEFINITION_FORMATION_WITH_SPECIFIED_SOURCE ( 'ANY', '', #156, .NOT_KNOWN. ) ;
#145 = AXIS2_PLACEMENT_3D ( 'NONE', #3, #27, #2 ) ;
#146 = CIRCLE ( 'NONE', #74, 44.13499999999999800 ) ;
#147 = UNCERTAINTY_MEASURE_WITH_UNIT (LENGTH_MEASURE( 1.000000000000000100E-005 ), #15, 'distance_accuracy_value', 'NONE');
#148 =( NAMED_UNIT ( * ) PLANE_ANGLE_UNIT ( ) SI_UNIT ( $, .RADIAN. ) );
#149 = CIRCLE ( 'NONE', #93, 2.665000000000001800 ) ;
#150 = ORIENTED_EDGE ( 'NONE', *, *, #5, .T. ) ;
#151 = DIRECTION ( 'NONE',  ( 0.0000000000000000000, 0.0000000000000000000, -1.000000000000000000 ) ) ;
#152 = EDGE_CURVE ( 'NONE', #110, #12, #117, .T. ) ;
#153 = AXIS2_PLACEMENT_3D ( 'NONE', #81, #79, #138 ) ;
#154 = ORIENTED_EDGE ( 'NONE', *, *, #88, .F. ) ;
#155 = CARTESIAN_POINT ( 'NONE',  ( 0.0000000000000000000, 0.0000000000000000000, 0.0000000000000000000 ) ) ;
#156 = PRODUCT ( '306DOR080-S1', '306DOR080-S1', '', ( #83 ) ) ;
#157 = CARTESIAN_POINT ( 'NONE',  ( 0.0000000000000000000, 0.0000000000000000000, 3.263683719727698600E-016 ) ) ;
#158 = TOROIDAL_SURFACE ( 'NONE', #35, 46.80000000000000400, 2.665000000000001800 ) ;
ENDSEC;
END-ISO-10303-21;
