ISO-10303-21;
HEADER;
FILE_DESCRIPTION (( 'STEP AP214' ),
    '1' );
FILE_NAME ('102DOR040-S1.step',
    '2017-07-06T09:25:26',
    ( 'install' ),
    ( '' ),
    'SwSTEP 2.0',
    'SolidWorks 2015',
    '' );
FILE_SCHEMA (( 'AUTOMOTIVE_DESIGN' ));
ENDSEC;

DATA;
#1 =( GEOMETRIC_REPRESENTATION_CONTEXT ( 3 ) GLOBAL_UNCERTAINTY_ASSIGNED_CONTEXT ( ( #56 ) ) GLOBAL_UNIT_ASSIGNED_CONTEXT ( ( #121, #14, #120 ) ) REPRESENTATION_CONTEXT ( 'NONE', 'WORKASPACE' ) );
#2 = CARTESIAN_POINT ( 'NONE',  ( 21.00000000000000000, 0.0000000000000000000, -3.061616997868381700E-016 ) ) ;
#3 = CARTESIAN_POINT ( 'NONE',  ( -26.00000000000000000, 3.184081677783118200E-015, 0.0000000000000000000 ) ) ;
#4 = CARTESIAN_POINT ( 'NONE',  ( 0.0000000000000000000, 0.0000000000000000000, 0.0000000000000000000 ) ) ;
#5 = AXIS2_PLACEMENT_3D ( 'NONE', #62, #61, #152 ) ;
#6 = SURFACE_STYLE_FILL_AREA ( #81 ) ;
#7 = PRODUCT_DEFINITION_CONTEXT ( 'detailed design', #117, 'design' ) ;
#8 = AXIS2_PLACEMENT_3D ( 'NONE', #37, #49, #51 ) ;
#9 = EDGE_LOOP ( 'NONE', ( #46, #112, #145, #132 ) ) ;
#10 = DIRECTION ( 'NONE',  ( -0.0000000000000000000, -0.0000000000000000000, 1.000000000000000000 ) ) ;
#11 = FILL_AREA_STYLE_COLOUR ( '', #35 ) ;
#12 = DIRECTION ( 'NONE',  ( -0.0000000000000000000, -0.0000000000000000000, 1.000000000000000000 ) ) ;
#13 = CARTESIAN_POINT ( 'NONE',  ( 0.0000000000000000000, 0.0000000000000000000, 0.0000000000000000000 ) ) ;
#14 =( NAMED_UNIT ( * ) PLANE_ANGLE_UNIT ( ) SI_UNIT ( $, .RADIAN. ) );
#15 = ORIENTED_EDGE ( 'NONE', *, *, #27, .T. ) ;
#16 = COLOUR_RGB ( '',0.3843137254901960500, 0.3843137254901960500, 0.3843137254901960500 ) ;
#17 = AXIS2_PLACEMENT_3D ( 'NONE', #63, #84, #72 ) ;
#18 = CIRCLE ( 'NONE', #82, 2.499999999999998700 ) ;
#19 = APPLICATION_CONTEXT ( 'automotive_design' ) ;
#20 = PRODUCT_CONTEXT ( 'NONE', #19, 'mechanical' ) ;
#21 = AXIS2_PLACEMENT_3D ( 'NONE', #128, #105, #133 ) ;
#22 = DIRECTION ( 'NONE',  ( 0.0000000000000000000, -1.000000000000000000, 0.0000000000000000000 ) ) ;
#23 = ORIENTED_EDGE ( 'NONE', *, *, #119, .T. ) ;
#24 = VERTEX_POINT ( 'NONE', #140 ) ;
#25 = VERTEX_POINT ( 'NONE', #3 ) ;
#26 = STYLED_ITEM ( 'NONE', ( #99 ), #45 ) ;
#27 = EDGE_CURVE ( 'NONE', #94, #24, #103, .T. ) ;
#28 = PRESENTATION_STYLE_ASSIGNMENT (( #60 ) ) ;
#29 = EDGE_CURVE ( 'NONE', #158, #94, #92, .T. ) ;
#30 = PRODUCT_DEFINITION ( 'UNKNOWN', '', #40, #7 ) ;
#31 = UNCERTAINTY_MEASURE_WITH_UNIT (LENGTH_MEASURE( 1.000000000000000100E-005 ), #100, 'distance_accuracy_value', 'NONE');
#32 = PRESENTATION_LAYER_ASSIGNMENT (  '', '', ( #26 ) ) ;
#33 = CARTESIAN_POINT ( 'NONE',  ( 23.50000000000000000, 0.0000000000000000000, 0.0000000000000000000 ) ) ;
#34 = DIRECTION ( 'NONE',  ( 1.000000000000000000, 0.0000000000000000000, 0.0000000000000000000 ) ) ;
#35 = COLOUR_RGB ( '',0.3843137254901960500, 0.3843137254901960500, 0.3843137254901960500 ) ;
#36 = EDGE_CURVE ( 'NONE', #158, #25, #53, .T. ) ;
#37 = CARTESIAN_POINT ( 'NONE',  ( 0.0000000000000000000, 0.0000000000000000000, 0.0000000000000000000 ) ) ;
#38 = DIRECTION ( 'NONE',  ( -0.0000000000000000000, -0.0000000000000000000, 1.000000000000000000 ) ) ;
#39 = ORIENTED_EDGE ( 'NONE', *, *, #29, .T. ) ;
#40 = PRODUCT_DEFINITION_FORMATION_WITH_SPECIFIED_SOURCE ( 'ANY', '', #55, .NOT_KNOWN. ) ;
#41 = CIRCLE ( 'NONE', #76, 2.499999999999998700 ) ;
#42 = MECHANICAL_DESIGN_GEOMETRIC_PRESENTATION_REPRESENTATION (  '', ( #26 ), #52 ) ;
#43 = TOROIDAL_SURFACE ( 'NONE', #17, 23.50000000000000000, 2.499999999999998700 ) ;
#44 = ADVANCED_FACE ( 'NONE', ( #113 ), #43, .T. ) ;
#45 = MANIFOLD_SOLID_BREP ( 'Rotation1', #129 ) ;
#46 = ORIENTED_EDGE ( 'NONE', *, *, #119, .F. ) ;
#47 = PRODUCT_RELATED_PRODUCT_CATEGORY ( 'part', '', ( #55 ) ) ;
#48 = DIRECTION ( 'NONE',  ( 0.0000000000000000000, -1.000000000000000000, 0.0000000000000000000 ) ) ;
#49 = DIRECTION ( 'NONE',  ( -0.0000000000000000000, -0.0000000000000000000, 1.000000000000000000 ) ) ;
#50 = ORIENTED_EDGE ( 'NONE', *, *, #36, .F. ) ;
#51 = DIRECTION ( 'NONE',  ( 1.000000000000000000, 0.0000000000000000000, 0.0000000000000000000 ) ) ;
#52 =( GEOMETRIC_REPRESENTATION_CONTEXT ( 3 ) GLOBAL_UNCERTAINTY_ASSIGNED_CONTEXT ( ( #151 ) ) GLOBAL_UNIT_ASSIGNED_CONTEXT ( ( #142, #74, #75 ) ) REPRESENTATION_CONTEXT ( 'NONE', 'WORKASPACE' ) );
#53 = CIRCLE ( 'NONE', #5, 2.499999999999998700 ) ;
#54 = ORIENTED_EDGE ( 'NONE', *, *, #123, .T. ) ;
#55 = PRODUCT ( '102DOR040-S1', '102DOR040-S1', '', ( #20 ) ) ;
#56 = UNCERTAINTY_MEASURE_WITH_UNIT (LENGTH_MEASURE( 1.000000000000000100E-005 ), #121, 'distance_accuracy_value', 'NONE');
#57 = AXIS2_PLACEMENT_3D ( 'NONE', #59, #12, #141 ) ;
#58 = ORIENTED_EDGE ( 'NONE', *, *, #126, .T. ) ;
#59 = CARTESIAN_POINT ( 'NONE',  ( 0.0000000000000000000, 0.0000000000000000000, 0.0000000000000000000 ) ) ;
#60 = SURFACE_STYLE_USAGE ( .BOTH. , #118 ) ;
#61 = DIRECTION ( 'NONE',  ( 1.224646799147353200E-016, 1.000000000000000000, 0.0000000000000000000 ) ) ;
#62 = CARTESIAN_POINT ( 'NONE',  ( -23.50000000000000000, 2.877919977996280300E-015, 0.0000000000000000000 ) ) ;
#63 = CARTESIAN_POINT ( 'NONE',  ( 0.0000000000000000000, 0.0000000000000000000, 0.0000000000000000000 ) ) ;
#64 = CIRCLE ( 'NONE', #93, 21.00000000000000000 ) ;
#65 = FACE_OUTER_BOUND ( 'NONE', #150, .T. ) ;
#66 = AXIS2_PLACEMENT_3D ( 'NONE', #4, #38, #34 ) ;
#67 = CIRCLE ( 'NONE', #115, 26.00000000000000000 ) ;
#68 = SURFACE_STYLE_FILL_AREA ( #131 ) ;
#69 =( NAMED_UNIT ( * ) PLANE_ANGLE_UNIT ( ) SI_UNIT ( $, .RADIAN. ) );
#70 = DIRECTION ( 'NONE',  ( 1.000000000000000000, 0.0000000000000000000, 0.0000000000000000000 ) ) ;
#71 = DIRECTION ( 'NONE',  ( -0.0000000000000000000, -0.0000000000000000000, 1.000000000000000000 ) ) ;
#72 = DIRECTION ( 'NONE',  ( 1.000000000000000000, 0.0000000000000000000, 0.0000000000000000000 ) ) ;
#73 = ORIENTED_EDGE ( 'NONE', *, *, #29, .F. ) ;
#74 =( NAMED_UNIT ( * ) PLANE_ANGLE_UNIT ( ) SI_UNIT ( $, .RADIAN. ) );
#75 =( NAMED_UNIT ( * ) SI_UNIT ( $, .STERADIAN. ) SOLID_ANGLE_UNIT ( ) );
#76 = AXIS2_PLACEMENT_3D ( 'NONE', #33, #22, #83 ) ;
#77 = DIRECTION ( 'NONE',  ( -0.0000000000000000000, -0.0000000000000000000, 1.000000000000000000 ) ) ;
#78 = EDGE_LOOP ( 'NONE', ( #98, #50, #39, #15 ) ) ;
#79 = FACE_OUTER_BOUND ( 'NONE', #78, .T. ) ;
#80 = CARTESIAN_POINT ( 'NONE',  ( 0.0000000000000000000, 0.0000000000000000000, -3.061616997868381700E-016 ) ) ;
#81 = FILL_AREA_STYLE ('',( #11 ) ) ;
#82 = AXIS2_PLACEMENT_3D ( 'NONE', #147, #137, #136 ) ;
#83 = DIRECTION ( 'NONE',  ( 0.0000000000000000000, 0.0000000000000000000, -1.000000000000000000 ) ) ;
#84 = DIRECTION ( 'NONE',  ( -0.0000000000000000000, -0.0000000000000000000, 1.000000000000000000 ) ) ;
#85 = SURFACE_SIDE_STYLE ('',( #6 ) ) ;
#86 = SHAPE_DEFINITION_REPRESENTATION ( #90, #124 ) ;
#87 = AXIS2_PLACEMENT_3D ( 'NONE', #155, #48, #89 ) ;
#88 = EDGE_LOOP ( 'NONE', ( #138, #154, #54, #73 ) ) ;
#89 = DIRECTION ( 'NONE',  ( 0.0000000000000000000, 0.0000000000000000000, -1.000000000000000000 ) ) ;
#90 = PRODUCT_DEFINITION_SHAPE ( 'NONE', 'NONE',  #30 ) ;
#91 = APPLICATION_PROTOCOL_DEFINITION ( 'draft international standard', 'automotive_design', 1998, #117 ) ;
#92 = CIRCLE ( 'NONE', #148, 21.00000000000000000 ) ;
#93 = AXIS2_PLACEMENT_3D ( 'NONE', #80, #111, #110 ) ;
#94 = VERTEX_POINT ( 'NONE', #2 ) ;
#95 =( NAMED_UNIT ( * ) SI_UNIT ( $, .STERADIAN. ) SOLID_ANGLE_UNIT ( ) );
#96 = CARTESIAN_POINT ( 'NONE',  ( 0.0000000000000000000, 0.0000000000000000000, 0.0000000000000000000 ) ) ;
#97 = APPLICATION_PROTOCOL_DEFINITION ( 'draft international standard', 'automotive_design', 1998, #19 ) ;
#98 = ORIENTED_EDGE ( 'NONE', *, *, #149, .F. ) ;
#99 = PRESENTATION_STYLE_ASSIGNMENT (( #127 ) ) ;
#100 =( LENGTH_UNIT ( ) NAMED_UNIT ( * ) SI_UNIT ( .MILLI., .METRE. ) );
#101 = FILL_AREA_STYLE_COLOUR ( '', #16 ) ;
#102 = CARTESIAN_POINT ( 'NONE',  ( 0.0000000000000000000, 0.0000000000000000000, -3.061616997868381700E-016 ) ) ;
#103 = CIRCLE ( 'NONE', #87, 2.499999999999998700 ) ;
#104 = TOROIDAL_SURFACE ( 'NONE', #106, 23.50000000000000000, 2.499999999999998700 ) ;
#105 = DIRECTION ( 'NONE',  ( 0.0000000000000000000, 0.0000000000000000000, 1.000000000000000000 ) ) ;
#106 = AXIS2_PLACEMENT_3D ( 'NONE', #13, #10, #135 ) ;
#107 = TOROIDAL_SURFACE ( 'NONE', #66, 23.50000000000000000, 2.499999999999998700 ) ;
#108 = ADVANCED_FACE ( 'NONE', ( #144 ), #122, .T. ) ;
#109 = CIRCLE ( 'NONE', #8, 26.00000000000000000 ) ;
#110 = DIRECTION ( 'NONE',  ( 1.000000000000000000, 0.0000000000000000000, 0.0000000000000000000 ) ) ;
#111 = DIRECTION ( 'NONE',  ( -0.0000000000000000000, -0.0000000000000000000, 1.000000000000000000 ) ) ;
#112 = ORIENTED_EDGE ( 'NONE', *, *, #27, .F. ) ;
#113 = FACE_OUTER_BOUND ( 'NONE', #9, .T. ) ;
#114 = CARTESIAN_POINT ( 'NONE',  ( -21.00000000000000000, 2.571758278209442100E-015, -3.061616997868381700E-016 ) ) ;
#115 = AXIS2_PLACEMENT_3D ( 'NONE', #96, #77, #70 ) ;
#116 = ADVANCED_FACE ( 'NONE', ( #65 ), #107, .T. ) ;
#117 = APPLICATION_CONTEXT ( 'automotive_design' ) ;
#118 = SURFACE_SIDE_STYLE ('',( #68 ) ) ;
#119 = EDGE_CURVE ( 'NONE', #24, #25, #109, .T. ) ;
#120 =( NAMED_UNIT ( * ) SI_UNIT ( $, .STERADIAN. ) SOLID_ANGLE_UNIT ( ) );
#121 =( LENGTH_UNIT ( ) NAMED_UNIT ( * ) SI_UNIT ( .MILLI., .METRE. ) );
#122 = TOROIDAL_SURFACE ( 'NONE', #57, 23.50000000000000000, 2.499999999999998700 ) ;
#123 = EDGE_CURVE ( 'NONE', #24, #94, #41, .T. ) ;
#124 = ADVANCED_BREP_SHAPE_REPRESENTATION ( '102DOR040-S1', ( #45, #21 ), #125 ) ;
#125 =( GEOMETRIC_REPRESENTATION_CONTEXT ( 3 ) GLOBAL_UNCERTAINTY_ASSIGNED_CONTEXT ( ( #31 ) ) GLOBAL_UNIT_ASSIGNED_CONTEXT ( ( #100, #69, #95 ) ) REPRESENTATION_CONTEXT ( 'NONE', 'WORKASPACE' ) );
#126 = EDGE_CURVE ( 'NONE', #25, #158, #18, .T. ) ;
#127 = SURFACE_STYLE_USAGE ( .BOTH. , #85 ) ;
#128 = CARTESIAN_POINT ( 'NONE',  ( 0.0000000000000000000, 0.0000000000000000000, 0.0000000000000000000 ) ) ;
#129 = CLOSED_SHELL ( 'NONE', ( #108, #116, #44, #134 ) ) ;
#130 = ORIENTED_EDGE ( 'NONE', *, *, #143, .F. ) ;
#131 = FILL_AREA_STYLE ('',( #101 ) ) ;
#132 = ORIENTED_EDGE ( 'NONE', *, *, #36, .T. ) ;
#133 = DIRECTION ( 'NONE',  ( 1.000000000000000000, 0.0000000000000000000, 0.0000000000000000000 ) ) ;
#134 = ADVANCED_FACE ( 'NONE', ( #79 ), #104, .T. ) ;
#135 = DIRECTION ( 'NONE',  ( 1.000000000000000000, 0.0000000000000000000, 0.0000000000000000000 ) ) ;
#136 = DIRECTION ( 'NONE',  ( -1.000000000000000000, 1.224646799147352700E-016, 0.0000000000000000000 ) ) ;
#137 = DIRECTION ( 'NONE',  ( 1.224646799147353200E-016, 1.000000000000000000, 0.0000000000000000000 ) ) ;
#138 = ORIENTED_EDGE ( 'NONE', *, *, #126, .F. ) ;
#139 = STYLED_ITEM ( 'NONE', ( #28 ), #124 ) ;
#140 = CARTESIAN_POINT ( 'NONE',  ( 26.00000000000000000, 0.0000000000000000000, 0.0000000000000000000 ) ) ;
#141 = DIRECTION ( 'NONE',  ( 1.000000000000000000, 0.0000000000000000000, 0.0000000000000000000 ) ) ;
#142 =( LENGTH_UNIT ( ) NAMED_UNIT ( * ) SI_UNIT ( .MILLI., .METRE. ) );
#143 = EDGE_CURVE ( 'NONE', #94, #158, #64, .T. ) ;
#144 = FACE_OUTER_BOUND ( 'NONE', #88, .T. ) ;
#145 = ORIENTED_EDGE ( 'NONE', *, *, #143, .T. ) ;
#146 = PRESENTATION_LAYER_ASSIGNMENT (  '', '', ( #139 ) ) ;
#147 = CARTESIAN_POINT ( 'NONE',  ( -23.50000000000000000, 2.877919977996280300E-015, 0.0000000000000000000 ) ) ;
#148 = AXIS2_PLACEMENT_3D ( 'NONE', #102, #71, #153 ) ;
#149 = EDGE_CURVE ( 'NONE', #25, #24, #67, .T. ) ;
#150 = EDGE_LOOP ( 'NONE', ( #157, #23, #58, #130 ) ) ;
#151 = UNCERTAINTY_MEASURE_WITH_UNIT (LENGTH_MEASURE( 1.000000000000000100E-005 ), #142, 'distance_accuracy_value', 'NONE');
#152 = DIRECTION ( 'NONE',  ( -1.000000000000000000, 1.224646799147352700E-016, 0.0000000000000000000 ) ) ;
#153 = DIRECTION ( 'NONE',  ( 1.000000000000000000, 0.0000000000000000000, 0.0000000000000000000 ) ) ;
#154 = ORIENTED_EDGE ( 'NONE', *, *, #149, .T. ) ;
#155 = CARTESIAN_POINT ( 'NONE',  ( 23.50000000000000000, 0.0000000000000000000, 0.0000000000000000000 ) ) ;
#156 = MECHANICAL_DESIGN_GEOMETRIC_PRESENTATION_REPRESENTATION (  '', ( #139 ), #1 ) ;
#157 = ORIENTED_EDGE ( 'NONE', *, *, #123, .F. ) ;
#158 = VERTEX_POINT ( 'NONE', #114 ) ;
ENDSEC;
END-ISO-10303-21;
