ISO-10303-21;
HEADER;
FILE_DESCRIPTION (( 'STEP AP214' ),
    '1' );
FILE_NAME ('490DFL250-S-G-S5.stp',
    '2017-10-11T11:18:16',
    ( '' ),
    ( '' ),
    'SwSTEP 2.0',
    'SolidWorks 2015',
    '' );
FILE_SCHEMA (( 'AUTOMOTIVE_DESIGN' ));
ENDSEC;

DATA;
#1 = EDGE_CURVE ( 'NONE', #2, #132, #104, .T. ) ;
#2 = VERTEX_POINT ( 'NONE', #204 ) ;
#3 = DIRECTION ( 'NONE',  ( 0.0000000000000000000, 0.0000000000000000000, 1.000000000000000000 ) ) ;
#4 = ORIENTED_EDGE ( 'NONE', *, *, #65, .F. ) ;
#5 = CARTESIAN_POINT ( 'NONE',  ( 136.4499999999999900, 0.0000000000000000000, 0.0000000000000000000 ) ) ;
#6 = AXIS2_PLACEMENT_3D ( 'NONE', #113, #116, #70 ) ;
#7 = VERTEX_POINT ( 'NONE', #42 ) ;
#8 = CIRCLE ( 'NONE', #98, 127.0000000000000000 ) ;
#9 = EDGE_CURVE ( 'NONE', #7, #214, #174, .T. ) ;
#10 = CARTESIAN_POINT ( 'NONE',  ( 0.0000000000000000000, 0.0000000000000000000, -2.000000000000000000 ) ) ;
#11 = CLOSED_SHELL ( 'NONE', ( #153, #106, #95, #213, #58, #165 ) ) ;
#12 = MANIFOLD_SOLID_BREP ( 'Aufsatz-Linear austragen1', #11 ) ;
#13 = MECHANICAL_DESIGN_GEOMETRIC_PRESENTATION_REPRESENTATION (  '', ( #88 ), #164 ) ;
#14 = EDGE_LOOP ( 'NONE', ( #20, #62, #127, #176 ) ) ;
#15 = EDGE_CURVE ( 'NONE', #29, #147, #101, .T. ) ;
#16 = DIRECTION ( 'NONE',  ( 0.0000000000000000000, 0.0000000000000000000, 1.000000000000000000 ) ) ;
#17 = DIRECTION ( 'NONE',  ( 0.0000000000000000000, 0.0000000000000000000, 1.000000000000000000 ) ) ;
#18 = AXIS2_PLACEMENT_3D ( 'NONE', #131, #3, #63 ) ;
#19 = VECTOR ( 'NONE', #144, 1000.000000000000000 ) ;
#20 = ORIENTED_EDGE ( 'NONE', *, *, #9, .F. ) ;
#21 = AXIS2_PLACEMENT_3D ( 'NONE', #10, #30, #99 ) ;
#22 = CARTESIAN_POINT ( 'NONE',  ( 127.0000000000000000, 0.0000000000000000000, -2.000000000000000000 ) ) ;
#23 = DIRECTION ( 'NONE',  ( 1.000000000000000000, 0.0000000000000000000, 0.0000000000000000000 ) ) ;
#24 = DIRECTION ( 'NONE',  ( 0.0000000000000000000, 0.0000000000000000000, 1.000000000000000000 ) ) ;
#25 = DIRECTION ( 'NONE',  ( 0.0000000000000000000, 0.0000000000000000000, 1.000000000000000000 ) ) ;
#26 = DIRECTION ( 'NONE',  ( 0.0000000000000000000, 0.0000000000000000000, 1.000000000000000000 ) ) ;
#27 = PLANE ( 'NONE',  #55 ) ;
#28 = EDGE_CURVE ( 'NONE', #147, #29, #167, .T. ) ;
#29 = VERTEX_POINT ( 'NONE', #149 ) ;
#30 = DIRECTION ( 'NONE',  ( 0.0000000000000000000, 0.0000000000000000000, 1.000000000000000000 ) ) ;
#31 = MECHANICAL_DESIGN_GEOMETRIC_PRESENTATION_REPRESENTATION (  '', ( #125 ), #130 ) ;
#32 =( NAMED_UNIT ( * ) PLANE_ANGLE_UNIT ( ) SI_UNIT ( $, .RADIAN. ) );
#33 = AXIS2_PLACEMENT_3D ( 'NONE', #173, #25, #81 ) ;
#34 = EDGE_LOOP ( 'NONE', ( #112, #145 ) ) ;
#35 = FILL_AREA_STYLE_COLOUR ( '', #114 ) ;
#36 = ORIENTED_EDGE ( 'NONE', *, *, #198, .T. ) ;
#37 =( NAMED_UNIT ( * ) SI_UNIT ( $, .STERADIAN. ) SOLID_ANGLE_UNIT ( ) );
#38 = VECTOR ( 'NONE', #155, 1000.000000000000000 ) ;
#39 = DIRECTION ( 'NONE',  ( 0.0000000000000000000, 0.0000000000000000000, 1.000000000000000000 ) ) ;
#40 = ORIENTED_EDGE ( 'NONE', *, *, #171, .T. ) ;
#41 = SURFACE_SIDE_STYLE ('',( #110 ) ) ;
#42 = CARTESIAN_POINT ( 'NONE',  ( -127.0000000000000000, 1.555301434917138600E-014, -2.000000000000000000 ) ) ;
#43 = AXIS2_PLACEMENT_3D ( 'NONE', #93, #16, #117 ) ;
#44 = EDGE_LOOP ( 'NONE', ( #192, #146 ) ) ;
#45 = APPLICATION_CONTEXT ( 'automotive_design' ) ;
#46 = UNCERTAINTY_MEASURE_WITH_UNIT (LENGTH_MEASURE( 1.000000000000000100E-005 ), #177, 'distance_accuracy_value', 'NONE');
#47 = DIRECTION ( 'NONE',  ( 1.000000000000000000, 0.0000000000000000000, 0.0000000000000000000 ) ) ;
#48 = PLANE ( 'NONE',  #170 ) ;
#49 = CARTESIAN_POINT ( 'NONE',  ( 0.0000000000000000000, 0.0000000000000000000, 0.0000000000000000000 ) ) ;
#50 = EDGE_LOOP ( 'NONE', ( #140, #89 ) ) ;
#51 =( NAMED_UNIT ( * ) PLANE_ANGLE_UNIT ( ) SI_UNIT ( $, .RADIAN. ) );
#52 = SURFACE_STYLE_FILL_AREA ( #83 ) ;
#53 = PRODUCT_DEFINITION ( 'UNKNOWN', '', #200, #160 ) ;
#54 = VECTOR ( 'NONE', #124, 1000.000000000000000 ) ;
#55 = AXIS2_PLACEMENT_3D ( 'NONE', #92, #190, #161 ) ;
#56 = SHAPE_DEFINITION_REPRESENTATION ( #205, #137 ) ;
#57 = LINE ( 'NONE', #123, #54 ) ;
#58 = ADVANCED_FACE ( 'NONE', ( #185, #168 ), #48, .T. ) ;
#59 = AXIS2_PLACEMENT_3D ( 'NONE', #87, #108, #71 ) ;
#60 = FILL_AREA_STYLE_COLOUR ( '', #184 ) ;
#61 = APPLICATION_CONTEXT ( 'automotive_design' ) ;
#62 = ORIENTED_EDGE ( 'NONE', *, *, #75, .T. ) ;
#63 = DIRECTION ( 'NONE',  ( 1.000000000000000000, 0.0000000000000000000, 0.0000000000000000000 ) ) ;
#64 = SURFACE_SIDE_STYLE ('',( #52 ) ) ;
#65 = EDGE_CURVE ( 'NONE', #214, #7, #8, .T. ) ;
#66 = DIRECTION ( 'NONE',  ( 0.0000000000000000000, 0.0000000000000000000, 1.000000000000000000 ) ) ;
#67 = EDGE_CURVE ( 'NONE', #73, #76, #107, .T. ) ;
#68 = EDGE_LOOP ( 'NONE', ( #119, #183 ) ) ;
#69 = SURFACE_STYLE_USAGE ( .BOTH. , #41 ) ;
#70 = DIRECTION ( 'NONE',  ( 1.000000000000000000, 0.0000000000000000000, 0.0000000000000000000 ) ) ;
#71 = DIRECTION ( 'NONE',  ( 1.000000000000000000, 0.0000000000000000000, 0.0000000000000000000 ) ) ;
#72 = EDGE_CURVE ( 'NONE', #73, #29, #57, .T. ) ;
#73 = VERTEX_POINT ( 'NONE', #157 ) ;
#74 = PRESENTATION_STYLE_ASSIGNMENT (( #69 ) ) ;
#75 = EDGE_CURVE ( 'NONE', #7, #2, #84, .T. ) ;
#76 = VERTEX_POINT ( 'NONE', #133 ) ;
#77 = DIRECTION ( 'NONE',  ( 0.0000000000000000000, 0.0000000000000000000, 1.000000000000000000 ) ) ;
#78 = CARTESIAN_POINT ( 'NONE',  ( 0.0000000000000000000, 0.0000000000000000000, -2.000000000000000000 ) ) ;
#79 = AXIS2_PLACEMENT_3D ( 'NONE', #49, #24, #47 ) ;
#80 =( NAMED_UNIT ( * ) SI_UNIT ( $, .STERADIAN. ) SOLID_ANGLE_UNIT ( ) );
#81 = DIRECTION ( 'NONE',  ( 1.000000000000000000, 0.0000000000000000000, 0.0000000000000000000 ) ) ;
#82 = CARTESIAN_POINT ( 'NONE',  ( 0.0000000000000000000, 0.0000000000000000000, -2.000000000000000000 ) ) ;
#83 = FILL_AREA_STYLE ('',( #60 ) ) ;
#84 = LINE ( 'NONE', #94, #19 ) ;
#85 = AXIS2_PLACEMENT_3D ( 'NONE', #121, #39, #23 ) ;
#86 = CARTESIAN_POINT ( 'NONE',  ( 0.0000000000000000000, 0.0000000000000000000, -2.000000000000000000 ) ) ;
#87 = CARTESIAN_POINT ( 'NONE',  ( 0.0000000000000000000, 0.0000000000000000000, -2.000000000000000000 ) ) ;
#88 = STYLED_ITEM ( 'NONE', ( #126 ), #12 ) ;
#89 = ORIENTED_EDGE ( 'NONE', *, *, #67, .F. ) ;
#90 = PRESENTATION_LAYER_ASSIGNMENT (  '', '', ( #88 ) ) ;
#91 = ORIENTED_EDGE ( 'NONE', *, *, #210, .T. ) ;
#92 = CARTESIAN_POINT ( 'NONE',  ( 0.0000000000000000000, 0.0000000000000000000, -2.000000000000000000 ) ) ;
#93 = CARTESIAN_POINT ( 'NONE',  ( 0.0000000000000000000, 0.0000000000000000000, 0.0000000000000000000 ) ) ;
#94 = CARTESIAN_POINT ( 'NONE',  ( -127.0000000000000000, 1.555301434917138600E-014, -2.000000000000000000 ) ) ;
#95 = ADVANCED_FACE ( 'NONE', ( #105 ), #206, .T. ) ;
#96 = CARTESIAN_POINT ( 'NONE',  ( 0.0000000000000000000, 0.0000000000000000000, -2.000000000000000000 ) ) ;
#97 = DIRECTION ( 'NONE',  ( 1.000000000000000000, 0.0000000000000000000, 0.0000000000000000000 ) ) ;
#98 = AXIS2_PLACEMENT_3D ( 'NONE', #86, #26, #100 ) ;
#99 = DIRECTION ( 'NONE',  ( 1.000000000000000000, 0.0000000000000000000, 0.0000000000000000000 ) ) ;
#100 = DIRECTION ( 'NONE',  ( 1.000000000000000000, 0.0000000000000000000, 0.0000000000000000000 ) ) ;
#101 = CIRCLE ( 'NONE', #43, 136.4499999999999900 ) ;
#102 = CARTESIAN_POINT ( 'NONE',  ( 136.4499999999999900, 0.0000000000000000000, -2.000000000000000000 ) ) ;
#103 = CARTESIAN_POINT ( 'NONE',  ( 127.0000000000000000, 0.0000000000000000000, 0.0000000000000000000 ) ) ;
#104 = CIRCLE ( 'NONE', #79, 127.0000000000000000 ) ;
#105 = FACE_OUTER_BOUND ( 'NONE', #199, .T. ) ;
#106 = ADVANCED_FACE ( 'NONE', ( #109 ), #141, .T. ) ;
#107 = CIRCLE ( 'NONE', #6, 136.4499999999999900 ) ;
#108 = DIRECTION ( 'NONE',  ( 0.0000000000000000000, 0.0000000000000000000, 1.000000000000000000 ) ) ;
#109 = FACE_OUTER_BOUND ( 'NONE', #189, .T. ) ;
#110 = SURFACE_STYLE_FILL_AREA ( #136 ) ;
#111 = PRODUCT_RELATED_PRODUCT_CATEGORY ( 'part', '', ( #151 ) ) ;
#112 = ORIENTED_EDGE ( 'NONE', *, *, #28, .T. ) ;
#113 = CARTESIAN_POINT ( 'NONE',  ( 0.0000000000000000000, 0.0000000000000000000, -2.000000000000000000 ) ) ;
#114 = COLOUR_RGB ( '',0.7254901960784313500, 0.4470588235294117300, 0.3686274509803921800 ) ;
#115 = FACE_OUTER_BOUND ( 'NONE', #14, .T. ) ;
#116 = DIRECTION ( 'NONE',  ( 0.0000000000000000000, 0.0000000000000000000, 1.000000000000000000 ) ) ;
#117 = DIRECTION ( 'NONE',  ( 1.000000000000000000, 0.0000000000000000000, 0.0000000000000000000 ) ) ;
#118 = FACE_BOUND ( 'NONE', #68, .T. ) ;
#119 = ORIENTED_EDGE ( 'NONE', *, *, #65, .T. ) ;
#120 = DIRECTION ( 'NONE',  ( 1.000000000000000000, 0.0000000000000000000, 0.0000000000000000000 ) ) ;
#121 = CARTESIAN_POINT ( 'NONE',  ( 0.0000000000000000000, 0.0000000000000000000, -2.000000000000000000 ) ) ;
#122 = LINE ( 'NONE', #102, #38 ) ;
#123 = CARTESIAN_POINT ( 'NONE',  ( -136.4499999999999900, 1.671030557436563400E-014, -2.000000000000000000 ) ) ;
#124 = DIRECTION ( 'NONE',  ( 0.0000000000000000000, 0.0000000000000000000, 1.000000000000000000 ) ) ;
#125 = STYLED_ITEM ( 'NONE', ( #74 ), #137 ) ;
#126 = PRESENTATION_STYLE_ASSIGNMENT (( #175 ) ) ;
#127 = ORIENTED_EDGE ( 'NONE', *, *, #1, .T. ) ;
#128 = VECTOR ( 'NONE', #150, 1000.000000000000000 ) ;
#129 = CYLINDRICAL_SURFACE ( 'NONE', #179, 127.0000000000000000 ) ;
#130 =( GEOMETRIC_REPRESENTATION_CONTEXT ( 3 ) GLOBAL_UNCERTAINTY_ASSIGNED_CONTEXT ( ( #196 ) ) GLOBAL_UNIT_ASSIGNED_CONTEXT ( ( #207, #203, #142 ) ) REPRESENTATION_CONTEXT ( 'NONE', 'WORKASPACE' ) );
#131 = CARTESIAN_POINT ( 'NONE',  ( 0.0000000000000000000, 0.0000000000000000000, 0.0000000000000000000 ) ) ;
#132 = VERTEX_POINT ( 'NONE', #103 ) ;
#133 = CARTESIAN_POINT ( 'NONE',  ( 136.4499999999999900, 0.0000000000000000000, -2.000000000000000000 ) ) ;
#134 = CIRCLE ( 'NONE', #18, 127.0000000000000000 ) ;
#135 = CYLINDRICAL_SURFACE ( 'NONE', #59, 127.0000000000000000 ) ;
#136 = FILL_AREA_STYLE ('',( #35 ) ) ;
#137 = ADVANCED_BREP_SHAPE_REPRESENTATION ( '490DFL250-S-G-S5', ( #12, #33 ), #166 ) ;
#138 = LINE ( 'NONE', #22, #128 ) ;
#139 = DIRECTION ( 'NONE',  ( 0.0000000000000000000, 0.0000000000000000000, 1.000000000000000000 ) ) ;
#140 = ORIENTED_EDGE ( 'NONE', *, *, #198, .F. ) ;
#141 = CYLINDRICAL_SURFACE ( 'NONE', #152, 136.4499999999999900 ) ;
#142 =( NAMED_UNIT ( * ) SI_UNIT ( $, .STERADIAN. ) SOLID_ANGLE_UNIT ( ) );
#143 = FACE_OUTER_BOUND ( 'NONE', #156, .T. ) ;
#144 = DIRECTION ( 'NONE',  ( 0.0000000000000000000, 0.0000000000000000000, 1.000000000000000000 ) ) ;
#145 = ORIENTED_EDGE ( 'NONE', *, *, #15, .T. ) ;
#146 = ORIENTED_EDGE ( 'NONE', *, *, #1, .F. ) ;
#147 = VERTEX_POINT ( 'NONE', #5 ) ;
#148 = ORIENTED_EDGE ( 'NONE', *, *, #15, .F. ) ;
#149 = CARTESIAN_POINT ( 'NONE',  ( -136.4499999999999900, 1.671030557436563400E-014, 0.0000000000000000000 ) ) ;
#150 = DIRECTION ( 'NONE',  ( 0.0000000000000000000, 0.0000000000000000000, 1.000000000000000000 ) ) ;
#151 = PRODUCT ( '490DFL250-S-G-S5', '490DFL250-S-G-S5', '', ( #209 ) ) ;
#152 = AXIS2_PLACEMENT_3D ( 'NONE', #96, #139, #97 ) ;
#153 = ADVANCED_FACE ( 'NONE', ( #115 ), #135, .F. ) ;
#154 = CARTESIAN_POINT ( 'NONE',  ( 127.0000000000000000, 0.0000000000000000000, -2.000000000000000000 ) ) ;
#155 = DIRECTION ( 'NONE',  ( 0.0000000000000000000, 0.0000000000000000000, 1.000000000000000000 ) ) ;
#156 = EDGE_LOOP ( 'NONE', ( #188, #4, #211, #40 ) ) ;
#157 = CARTESIAN_POINT ( 'NONE',  ( -136.4499999999999900, 1.671030557436563400E-014, -2.000000000000000000 ) ) ;
#158 = AXIS2_PLACEMENT_3D ( 'NONE', #180, #77, #120 ) ;
#159 =( LENGTH_UNIT ( ) NAMED_UNIT ( * ) SI_UNIT ( .MILLI., .METRE. ) );
#160 = PRODUCT_DEFINITION_CONTEXT ( 'detailed design', #61, 'design' ) ;
#161 = DIRECTION ( 'NONE',  ( 1.000000000000000000, 0.0000000000000000000, -0.0000000000000000000 ) ) ;
#162 = DIRECTION ( 'NONE',  ( 1.000000000000000000, 0.0000000000000000000, -0.0000000000000000000 ) ) ;
#163 = CIRCLE ( 'NONE', #21, 136.4499999999999900 ) ;
#164 =( GEOMETRIC_REPRESENTATION_CONTEXT ( 3 ) GLOBAL_UNCERTAINTY_ASSIGNED_CONTEXT ( ( #182 ) ) GLOBAL_UNIT_ASSIGNED_CONTEXT ( ( #159, #32, #80 ) ) REPRESENTATION_CONTEXT ( 'NONE', 'WORKASPACE' ) );
#165 = ADVANCED_FACE ( 'NONE', ( #143 ), #129, .F. ) ;
#166 =( GEOMETRIC_REPRESENTATION_CONTEXT ( 3 ) GLOBAL_UNCERTAINTY_ASSIGNED_CONTEXT ( ( #46 ) ) GLOBAL_UNIT_ASSIGNED_CONTEXT ( ( #177, #51, #37 ) ) REPRESENTATION_CONTEXT ( 'NONE', 'WORKASPACE' ) );
#167 = CIRCLE ( 'NONE', #158, 136.4499999999999900 ) ;
#168 = FACE_OUTER_BOUND ( 'NONE', #34, .T. ) ;
#169 = APPLICATION_PROTOCOL_DEFINITION ( 'draft international standard', 'automotive_design', 1998, #45 ) ;
#170 = AXIS2_PLACEMENT_3D ( 'NONE', #178, #66, #162 ) ;
#171 = EDGE_CURVE ( 'NONE', #132, #2, #134, .T. ) ;
#172 = ORIENTED_EDGE ( 'NONE', *, *, #67, .T. ) ;
#173 = CARTESIAN_POINT ( 'NONE',  ( 0.0000000000000000000, 0.0000000000000000000, 0.0000000000000000000 ) ) ;
#174 = CIRCLE ( 'NONE', #85, 127.0000000000000000 ) ;
#175 = SURFACE_STYLE_USAGE ( .BOTH. , #64 ) ;
#176 = ORIENTED_EDGE ( 'NONE', *, *, #191, .F. ) ;
#177 =( LENGTH_UNIT ( ) NAMED_UNIT ( * ) SI_UNIT ( .MILLI., .METRE. ) );
#178 = CARTESIAN_POINT ( 'NONE',  ( 0.0000000000000000000, 0.0000000000000000000, 0.0000000000000000000 ) ) ;
#179 = AXIS2_PLACEMENT_3D ( 'NONE', #82, #17, #187 ) ;
#180 = CARTESIAN_POINT ( 'NONE',  ( 0.0000000000000000000, 0.0000000000000000000, 0.0000000000000000000 ) ) ;
#181 = APPLICATION_PROTOCOL_DEFINITION ( 'draft international standard', 'automotive_design', 1998, #61 ) ;
#182 = UNCERTAINTY_MEASURE_WITH_UNIT (LENGTH_MEASURE( 1.000000000000000100E-005 ), #159, 'distance_accuracy_value', 'NONE');
#183 = ORIENTED_EDGE ( 'NONE', *, *, #9, .T. ) ;
#184 = COLOUR_RGB ( '',0.7254901960784313500, 0.4470588235294117300, 0.3686274509803921800 ) ;
#185 = FACE_BOUND ( 'NONE', #44, .T. ) ;
#186 = PRESENTATION_LAYER_ASSIGNMENT (  '', '', ( #125 ) ) ;
#187 = DIRECTION ( 'NONE',  ( 1.000000000000000000, 0.0000000000000000000, 0.0000000000000000000 ) ) ;
#188 = ORIENTED_EDGE ( 'NONE', *, *, #75, .F. ) ;
#189 = EDGE_LOOP ( 'NONE', ( #36, #195, #208, #193 ) ) ;
#190 = DIRECTION ( 'NONE',  ( 0.0000000000000000000, 0.0000000000000000000, 1.000000000000000000 ) ) ;
#191 = EDGE_CURVE ( 'NONE', #214, #132, #138, .T. ) ;
#192 = ORIENTED_EDGE ( 'NONE', *, *, #171, .F. ) ;
#193 = ORIENTED_EDGE ( 'NONE', *, *, #210, .F. ) ;
#194 = DIRECTION ( 'NONE',  ( 0.0000000000000000000, 0.0000000000000000000, 1.000000000000000000 ) ) ;
#195 = ORIENTED_EDGE ( 'NONE', *, *, #72, .T. ) ;
#196 = UNCERTAINTY_MEASURE_WITH_UNIT (LENGTH_MEASURE( 1.000000000000000100E-005 ), #207, 'distance_accuracy_value', 'NONE');
#197 = AXIS2_PLACEMENT_3D ( 'NONE', #78, #194, #202 ) ;
#198 = EDGE_CURVE ( 'NONE', #76, #73, #163, .T. ) ;
#199 = EDGE_LOOP ( 'NONE', ( #201, #172, #91, #148 ) ) ;
#200 = PRODUCT_DEFINITION_FORMATION_WITH_SPECIFIED_SOURCE ( 'ANY', '', #151, .NOT_KNOWN. ) ;
#201 = ORIENTED_EDGE ( 'NONE', *, *, #72, .F. ) ;
#202 = DIRECTION ( 'NONE',  ( 1.000000000000000000, 0.0000000000000000000, 0.0000000000000000000 ) ) ;
#203 =( NAMED_UNIT ( * ) PLANE_ANGLE_UNIT ( ) SI_UNIT ( $, .RADIAN. ) );
#204 = CARTESIAN_POINT ( 'NONE',  ( -127.0000000000000000, 1.555301434917138600E-014, 0.0000000000000000000 ) ) ;
#205 = PRODUCT_DEFINITION_SHAPE ( 'NONE', 'NONE',  #53 ) ;
#206 = CYLINDRICAL_SURFACE ( 'NONE', #197, 136.4499999999999900 ) ;
#207 =( LENGTH_UNIT ( ) NAMED_UNIT ( * ) SI_UNIT ( .MILLI., .METRE. ) );
#208 = ORIENTED_EDGE ( 'NONE', *, *, #28, .F. ) ;
#209 = PRODUCT_CONTEXT ( 'NONE', #45, 'mechanical' ) ;
#210 = EDGE_CURVE ( 'NONE', #76, #147, #122, .T. ) ;
#211 = ORIENTED_EDGE ( 'NONE', *, *, #191, .T. ) ;
#212 = FACE_OUTER_BOUND ( 'NONE', #50, .T. ) ;
#213 = ADVANCED_FACE ( 'NONE', ( #118, #212 ), #27, .F. ) ;
#214 = VERTEX_POINT ( 'NONE', #154 ) ;
ENDSEC;
END-ISO-10303-21;
