ISO-10303-21;
HEADER;
FILE_DESCRIPTION (( 'STEP AP214' ),
    '1' );
FILE_NAME ('160FBL016.step',
    '2017-07-10T07:10:50',
    ( 'install' ),
    ( '' ),
    'SwSTEP 2.0',
    'SolidWorks 2015',
    '' );
FILE_SCHEMA (( 'AUTOMOTIVE_DESIGN' ));
ENDSEC;

DATA;
#1 = DIRECTION ( 'NONE',  ( -1.000000000000000000, 0.0000000000000000000, 0.0000000000000000000 ) ) ;
#2 = VECTOR ( 'NONE', #213, 1000.000000000000000 ) ;
#3 = CARTESIAN_POINT ( 'NONE',  ( 0.0000000000000000000, 0.0000000000000000000, 0.0000000000000000000 ) ) ;
#4 = CARTESIAN_POINT ( 'NONE',  ( 0.0000000000000000000, 0.0000000000000000000, 0.0000000000000000000 ) ) ;
#5 = STYLED_ITEM ( 'NONE', ( #91 ), #223 ) ;
#6 = ORIENTED_EDGE ( 'NONE', *, *, #101, .F. ) ;
#7 = LINE ( 'NONE', #95, #2 ) ;
#8 =( NAMED_UNIT ( * ) SI_UNIT ( $, .STERADIAN. ) SOLID_ANGLE_UNIT ( ) );
#9 = AXIS2_PLACEMENT_3D ( 'NONE', #242, #16, #192 ) ;
#10 = VERTEX_POINT ( 'NONE', #41 ) ;
#11 = VECTOR ( 'NONE', #103, 1000.000000000000000 ) ;
#12 = SURFACE_STYLE_FILL_AREA ( #219 ) ;
#13 = ADVANCED_BREP_SHAPE_REPRESENTATION ( '160FBL016', ( #223, #161 ), #56 ) ;
#14 = SHAPE_DEFINITION_REPRESENTATION ( #191, #13 ) ;
#15 = DIRECTION ( 'NONE',  ( -0.0000000000000000000, -0.0000000000000000000, -1.000000000000000000 ) ) ;
#16 = DIRECTION ( 'NONE',  ( -0.0000000000000000000, -0.0000000000000000000, -1.000000000000000000 ) ) ;
#17 = PRESENTATION_LAYER_ASSIGNMENT (  '', '', ( #5 ) ) ;
#18 = VECTOR ( 'NONE', #99, 1000.000000000000000 ) ;
#19 = DIRECTION ( 'NONE',  ( -0.0000000000000000000, -0.0000000000000000000, -1.000000000000000000 ) ) ;
#20 = CARTESIAN_POINT ( 'NONE',  ( 0.0000000000000000000, 0.0000000000000000000, 3.198598838310104100 ) ) ;
#21 = AXIS2_PLACEMENT_3D ( 'NONE', #149, #151, #153 ) ;
#22 = DIRECTION ( 'NONE',  ( -1.000000000000000000, 0.0000000000000000000, 0.0000000000000000000 ) ) ;
#23 = TOROIDAL_SURFACE ( 'NONE', #165, 13.89999999999999900, 0.9999999999999995600 ) ;
#24 = LINE ( 'NONE', #232, #18 ) ;
#25 = DIRECTION ( 'NONE',  ( 1.000000000000000000, 0.0000000000000000000, 0.0000000000000000000 ) ) ;
#26 = PRESENTATION_STYLE_ASSIGNMENT (( #102 ) ) ;
#27 = CARTESIAN_POINT ( 'NONE',  ( 0.0000000000000000000, 0.0000000000000000000, 3.198598838310104100 ) ) ;
#28 = SURFACE_SIDE_STYLE ('',( #36 ) ) ;
#29 = FACE_OUTER_BOUND ( 'NONE', #160, .T. ) ;
#30 = ORIENTED_EDGE ( 'NONE', *, *, #182, .F. ) ;
#31 = DIRECTION ( 'NONE',  ( -0.0000000000000000000, -0.0000000000000000000, -1.000000000000000000 ) ) ;
#32 = MECHANICAL_DESIGN_GEOMETRIC_PRESENTATION_REPRESENTATION (  '', ( #5 ), #46 ) ;
#33 = DIRECTION ( 'NONE',  ( 1.000000000000000000, 0.0000000000000000000, -0.0000000000000000000 ) ) ;
#34 = ADVANCED_FACE ( 'NONE', ( #97 ), #96, .T. ) ;
#35 = ADVANCED_FACE ( 'NONE', ( #83 ), #70, .T. ) ;
#36 = SURFACE_STYLE_FILL_AREA ( #58 ) ;
#37 = ORIENTED_EDGE ( 'NONE', *, *, #207, .T. ) ;
#38 = CARTESIAN_POINT ( 'NONE',  ( -7.435898384862046100, 0.0000000000000000000, 5.000000000000000000 ) ) ;
#39 = DIRECTION ( 'NONE',  ( -0.0000000000000000000, -0.0000000000000000000, -1.000000000000000000 ) ) ;
#40 = AXIS2_PLACEMENT_3D ( 'NONE', #57, #15, #131 ) ;
#41 = CARTESIAN_POINT ( 'NONE',  ( 7.435898384862046100, 1.322295078954882900E-015, 5.000000000000000000 ) ) ;
#42 = DIRECTION ( 'NONE',  ( -1.000000000000000000, 0.0000000000000000000, 0.0000000000000000000 ) ) ;
#43 = CIRCLE ( 'NONE', #238, 0.9999999999999995600 ) ;
#44 = ORIENTED_EDGE ( 'NONE', *, *, #65, .T. ) ;
#45 = DIRECTION ( 'NONE',  ( -0.0000000000000000000, -0.0000000000000000000, -1.000000000000000000 ) ) ;
#46 =( GEOMETRIC_REPRESENTATION_CONTEXT ( 3 ) GLOBAL_UNCERTAINTY_ASSIGNED_CONTEXT ( ( #178 ) ) GLOBAL_UNIT_ASSIGNED_CONTEXT ( ( #184, #51, #180 ) ) REPRESENTATION_CONTEXT ( 'NONE', 'WORKASPACE' ) );
#47 = DIRECTION ( 'NONE',  ( -0.0000000000000000000, 0.0000000000000000000, -1.000000000000000000 ) ) ;
#48 = PRODUCT_CONTEXT ( 'NONE', #67, 'mechanical' ) ;
#49 = CIRCLE ( 'NONE', #137, 7.435898384862046100 ) ;
#50 = FILL_AREA_STYLE_COLOUR ( '', #146 ) ;
#51 =( NAMED_UNIT ( * ) PLANE_ANGLE_UNIT ( ) SI_UNIT ( $, .RADIAN. ) );
#52 = PRODUCT_DEFINITION_CONTEXT ( 'detailed design', #138, 'design' ) ;
#53 = CIRCLE ( 'NONE', #126, 14.15881904510251300 ) ;
#54 = PRODUCT ( '160FBL016', '160FBL016', '', ( #48 ) ) ;
#55 = VERTEX_POINT ( 'NONE', #110 ) ;
#56 =( GEOMETRIC_REPRESENTATION_CONTEXT ( 3 ) GLOBAL_UNCERTAINTY_ASSIGNED_CONTEXT ( ( #208 ) ) GLOBAL_UNIT_ASSIGNED_CONTEXT ( ( #125, #66, #221 ) ) REPRESENTATION_CONTEXT ( 'NONE', 'WORKASPACE' ) );
#57 = CARTESIAN_POINT ( 'NONE',  ( 0.0000000000000000000, 0.0000000000000000000, 0.0000000000000000000 ) ) ;
#58 = FILL_AREA_STYLE ('',( #116 ) ) ;
#59 = CIRCLE ( 'NONE', #61, 7.435898384862046100 ) ;
#60 = DIRECTION ( 'NONE',  ( -0.0000000000000000000, -0.0000000000000000000, -1.000000000000000000 ) ) ;
#61 = AXIS2_PLACEMENT_3D ( 'NONE', #163, #31, #127 ) ;
#62 = PLANE ( 'NONE',  #72 ) ;
#63 = VECTOR ( 'NONE', #199, 1000.000000000000000 ) ;
#64 = DIRECTION ( 'NONE',  ( -1.000000000000000000, 0.0000000000000000000, 0.0000000000000000000 ) ) ;
#65 = EDGE_CURVE ( 'NONE', #209, #55, #222, .T. ) ;
#66 =( NAMED_UNIT ( * ) PLANE_ANGLE_UNIT ( ) SI_UNIT ( $, .RADIAN. ) );
#67 = APPLICATION_CONTEXT ( 'automotive_design' ) ;
#68 = FACE_OUTER_BOUND ( 'NONE', #98, .T. ) ;
#69 = CARTESIAN_POINT ( 'NONE',  ( 0.0000000000000000000, 7.435898384862046100, 4.999999999999999100 ) ) ;
#70 = CYLINDRICAL_SURFACE ( 'NONE', #40, 14.90000000000000000 ) ;
#71 = CIRCLE ( 'NONE', #94, 14.15881904510251300 ) ;
#72 = AXIS2_PLACEMENT_3D ( 'NONE', #218, #47, #64 ) ;
#73 = EDGE_CURVE ( 'NONE', #135, #183, #87, .T. ) ;
#74 = DIRECTION ( 'NONE',  ( -1.224646799147353200E-016, 1.000000000000000000, 0.0000000000000000000 ) ) ;
#75 = CARTESIAN_POINT ( 'NONE',  ( 13.89999999999999900, 1.702259050814820900E-015, 2.232673012021034500 ) ) ;
#76 = LINE ( 'NONE', #78, #63 ) ;
#77 = STYLED_ITEM ( 'NONE', ( #26 ), #13 ) ;
#78 = CARTESIAN_POINT ( 'NONE',  ( 14.90000000000000000, 1.824723730729556200E-015, 0.0000000000000000000 ) ) ;
#79 = SURFACE_SIDE_STYLE ('',( #12 ) ) ;
#80 = CYLINDRICAL_SURFACE ( 'NONE', #203, 14.90000000000000000 ) ;
#81 = FACE_OUTER_BOUND ( 'NONE', #124, .T. ) ;
#82 = CARTESIAN_POINT ( 'NONE',  ( -13.89999999999999900, 0.0000000000000000000, 2.232673012021034500 ) ) ;
#83 = FACE_OUTER_BOUND ( 'NONE', #130, .T. ) ;
#84 = EDGE_CURVE ( 'NONE', #135, #209, #76, .T. ) ;
#85 = ADVANCED_FACE ( 'NONE', ( #92 ), #62, .T. ) ;
#86 = ORIENTED_EDGE ( 'NONE', *, *, #84, .F. ) ;
#87 = CIRCLE ( 'NONE', #241, 14.89999999999999900 ) ;
#88 = VERTEX_POINT ( 'NONE', #38 ) ;
#89 = PRESENTATION_LAYER_ASSIGNMENT (  '', '', ( #77 ) ) ;
#90 = DIRECTION ( 'NONE',  ( -1.000000000000000000, 0.0000000000000000000, 0.0000000000000000000 ) ) ;
#91 = PRESENTATION_STYLE_ASSIGNMENT (( #144 ) ) ;
#92 = FACE_OUTER_BOUND ( 'NONE', #235, .T. ) ;
#93 = CARTESIAN_POINT ( 'NONE',  ( 0.0000000000000000000, 0.0000000000000000000, 2.232673012021034500 ) ) ;
#94 = AXIS2_PLACEMENT_3D ( 'NONE', #159, #118, #111 ) ;
#95 = CARTESIAN_POINT ( 'NONE',  ( 14.15881904510251300, 1.733955242329137600E-015, 3.198598838310104100 ) ) ;
#96 = TOROIDAL_SURFACE ( 'NONE', #9, 13.89999999999999900, 0.9999999999999995600 ) ;
#97 = FACE_OUTER_BOUND ( 'NONE', #142, .T. ) ;
#98 = EDGE_LOOP ( 'NONE', ( #6, #240 ) ) ;
#99 = DIRECTION ( 'NONE',  ( -0.9659258262890699800, 0.0000000000000000000, -0.2588190451025145200 ) ) ;
#100 = EDGE_LOOP ( 'NONE', ( #201, #205, #217, #239 ) ) ;
#101 = EDGE_CURVE ( 'NONE', #88, #10, #59, .T. ) ;
#102 = SURFACE_STYLE_USAGE ( .BOTH. , #79 ) ;
#103 = DIRECTION ( 'NONE',  ( -0.0000000000000000000, -0.0000000000000000000, -1.000000000000000000 ) ) ;
#104 = ORIENTED_EDGE ( 'NONE', *, *, #196, .F. ) ;
#105 = ORIENTED_EDGE ( 'NONE', *, *, #169, .T. ) ;
#106 = MECHANICAL_DESIGN_GEOMETRIC_PRESENTATION_REPRESENTATION (  '', ( #77 ), #119 ) ;
#107 = ORIENTED_EDGE ( 'NONE', *, *, #101, .T. ) ;
#108 = ADVANCED_FACE ( 'NONE', ( #68 ), #237, .T. ) ;
#109 = AXIS2_PLACEMENT_3D ( 'NONE', #69, #166, #33 ) ;
#110 = CARTESIAN_POINT ( 'NONE',  ( -14.90000000000000000, 0.0000000000000000000, 0.0000000000000000000 ) ) ;
#111 = DIRECTION ( 'NONE',  ( -1.000000000000000000, 0.0000000000000000000, 0.0000000000000000000 ) ) ;
#112 = ORIENTED_EDGE ( 'NONE', *, *, #143, .F. ) ;
#113 = ORIENTED_EDGE ( 'NONE', *, *, #115, .T. ) ;
#114 = CARTESIAN_POINT ( 'NONE',  ( 0.0000000000000000000, 0.0000000000000000000, 0.0000000000000000000 ) ) ;
#115 = EDGE_CURVE ( 'NONE', #189, #228, #71, .T. ) ;
#116 = FILL_AREA_STYLE_COLOUR ( '', #133 ) ;
#117 = ORIENTED_EDGE ( 'NONE', *, *, #115, .F. ) ;
#118 = DIRECTION ( 'NONE',  ( -0.0000000000000000000, -0.0000000000000000000, -1.000000000000000000 ) ) ;
#119 =( GEOMETRIC_REPRESENTATION_CONTEXT ( 3 ) GLOBAL_UNCERTAINTY_ASSIGNED_CONTEXT ( ( #155 ) ) GLOBAL_UNIT_ASSIGNED_CONTEXT ( ( #123, #236, #8 ) ) REPRESENTATION_CONTEXT ( 'NONE', 'WORKASPACE' ) );
#120 = ORIENTED_EDGE ( 'NONE', *, *, #182, .T. ) ;
#121 = DIRECTION ( 'NONE',  ( -0.0000000000000000000, -0.0000000000000000000, -1.000000000000000000 ) ) ;
#122 = DIRECTION ( 'NONE',  ( -1.000000000000000000, 0.0000000000000000000, 0.0000000000000000000 ) ) ;
#123 =( LENGTH_UNIT ( ) NAMED_UNIT ( * ) SI_UNIT ( .MILLI., .METRE. ) );
#124 = EDGE_LOOP ( 'NONE', ( #30, #177, #224, #195 ) ) ;
#125 =( LENGTH_UNIT ( ) NAMED_UNIT ( * ) SI_UNIT ( .MILLI., .METRE. ) );
#126 = AXIS2_PLACEMENT_3D ( 'NONE', #27, #39, #150 ) ;
#127 = DIRECTION ( 'NONE',  ( -1.000000000000000000, 0.0000000000000000000, 0.0000000000000000000 ) ) ;
#128 = CLOSED_SHELL ( 'NONE', ( #187, #34, #35, #85, #186, #168, #206, #108 ) ) ;
#129 = EDGE_CURVE ( 'NONE', #228, #189, #53, .T. ) ;
#130 = EDGE_LOOP ( 'NONE', ( #157, #162, #167, #170 ) ) ;
#131 = DIRECTION ( 'NONE',  ( -1.000000000000000000, 0.0000000000000000000, 0.0000000000000000000 ) ) ;
#132 = DIRECTION ( 'NONE',  ( -0.0000000000000000000, -0.0000000000000000000, -1.000000000000000000 ) ) ;
#133 = COLOUR_RGB ( '',0.9568627450980391500, 0.9490196078431372100, 0.9607843137254902200 ) ;
#134 = DIRECTION ( 'NONE',  ( -1.000000000000000000, 0.0000000000000000000, 0.0000000000000000000 ) ) ;
#135 = VERTEX_POINT ( 'NONE', #204 ) ;
#136 = DIRECTION ( 'NONE',  ( -1.000000000000000000, -1.224646799147353500E-016, 0.0000000000000000000 ) ) ;
#137 = AXIS2_PLACEMENT_3D ( 'NONE', #176, #211, #90 ) ;
#138 = APPLICATION_CONTEXT ( 'automotive_design' ) ;
#139 = APPLICATION_PROTOCOL_DEFINITION ( 'draft international standard', 'automotive_design', 1998, #67 ) ;
#140 = DIRECTION ( 'NONE',  ( 0.0000000000000000000, 0.0000000000000000000, 1.000000000000000000 ) ) ;
#141 = FACE_OUTER_BOUND ( 'NONE', #100, .T. ) ;
#142 = EDGE_LOOP ( 'NONE', ( #113, #120, #104, #154 ) ) ;
#143 = EDGE_CURVE ( 'NONE', #88, #189, #24, .T. ) ;
#144 = SURFACE_STYLE_USAGE ( .BOTH. , #28 ) ;
#145 = CARTESIAN_POINT ( 'NONE',  ( -14.90000000000000000, 0.0000000000000000000, 0.0000000000000000000 ) ) ;
#146 = COLOUR_RGB ( '',0.9568627450980391500, 0.9490196078431372100, 0.9607843137254902200 ) ;
#147 = CONICAL_SURFACE ( 'NONE', #215, 14.15881904510251300, 1.308996938995753600 ) ;
#148 = ORIENTED_EDGE ( 'NONE', *, *, #229, .T. ) ;
#149 = CARTESIAN_POINT ( 'NONE',  ( 0.0000000000000000000, 0.0000000000000000000, 0.0000000000000000000 ) ) ;
#150 = DIRECTION ( 'NONE',  ( -1.000000000000000000, 0.0000000000000000000, 0.0000000000000000000 ) ) ;
#151 = DIRECTION ( 'NONE',  ( -0.0000000000000000000, -0.0000000000000000000, -1.000000000000000000 ) ) ;
#152 = AXIS2_PLACEMENT_3D ( 'NONE', #75, #74, #136 ) ;
#153 = DIRECTION ( 'NONE',  ( -1.000000000000000000, 0.0000000000000000000, 0.0000000000000000000 ) ) ;
#154 = ORIENTED_EDGE ( 'NONE', *, *, #220, .F. ) ;
#155 = UNCERTAINTY_MEASURE_WITH_UNIT (LENGTH_MEASURE( 1.000000000000000100E-005 ), #123, 'distance_accuracy_value', 'NONE');
#156 = DIRECTION ( 'NONE',  ( -0.0000000000000000000, -0.0000000000000000000, -1.000000000000000000 ) ) ;
#157 = ORIENTED_EDGE ( 'NONE', *, *, #196, .T. ) ;
#158 = EDGE_CURVE ( 'NONE', #10, #88, #49, .T. ) ;
#159 = CARTESIAN_POINT ( 'NONE',  ( 0.0000000000000000000, 0.0000000000000000000, 3.198598838310104100 ) ) ;
#160 = EDGE_LOOP ( 'NONE', ( #107, #105, #117, #112 ) ) ;
#161 = AXIS2_PLACEMENT_3D ( 'NONE', #3, #140, #25 ) ;
#162 = ORIENTED_EDGE ( 'NONE', *, *, #84, .T. ) ;
#163 = CARTESIAN_POINT ( 'NONE',  ( 0.0000000000000000000, 0.0000000000000000000, 5.000000000000000000 ) ) ;
#164 = DIRECTION ( 'NONE',  ( 0.0000000000000000000, 0.0000000000000000000, -1.000000000000000000 ) ) ;
#165 = AXIS2_PLACEMENT_3D ( 'NONE', #93, #60, #22 ) ;
#166 = DIRECTION ( 'NONE',  ( 0.0000000000000000000, 0.0000000000000000000, 1.000000000000000000 ) ) ;
#167 = ORIENTED_EDGE ( 'NONE', *, *, #207, .F. ) ;
#168 = ADVANCED_FACE ( 'NONE', ( #81 ), #23, .T. ) ;
#169 = EDGE_CURVE ( 'NONE', #10, #228, #7, .T. ) ;
#170 = ORIENTED_EDGE ( 'NONE', *, *, #229, .F. ) ;
#171 = CARTESIAN_POINT ( 'NONE',  ( -14.89999999999999900, 0.0000000000000000000, 2.232673012021034500 ) ) ;
#172 = PRODUCT_DEFINITION ( 'UNKNOWN', '', #185, #52 ) ;
#173 = ORIENTED_EDGE ( 'NONE', *, *, #73, .T. ) ;
#174 = CARTESIAN_POINT ( 'NONE',  ( 14.15881904510251300, 1.779339486529346800E-015, 3.198598838310104100 ) ) ;
#175 = CARTESIAN_POINT ( 'NONE',  ( 0.0000000000000000000, 0.0000000000000000000, 3.198598838310104100 ) ) ;
#176 = CARTESIAN_POINT ( 'NONE',  ( 0.0000000000000000000, 0.0000000000000000000, 5.000000000000000000 ) ) ;
#177 = ORIENTED_EDGE ( 'NONE', *, *, #129, .T. ) ;
#178 = UNCERTAINTY_MEASURE_WITH_UNIT (LENGTH_MEASURE( 1.000000000000000100E-005 ), #184, 'distance_accuracy_value', 'NONE');
#179 = AXIS2_PLACEMENT_3D ( 'NONE', #194, #156, #42 ) ;
#180 =( NAMED_UNIT ( * ) SI_UNIT ( $, .STERADIAN. ) SOLID_ANGLE_UNIT ( ) );
#181 = CIRCLE ( 'NONE', #179, 14.89999999999999900 ) ;
#182 = EDGE_CURVE ( 'NONE', #228, #135, #227, .T. ) ;
#183 = VERTEX_POINT ( 'NONE', #171 ) ;
#184 =( LENGTH_UNIT ( ) NAMED_UNIT ( * ) SI_UNIT ( .MILLI., .METRE. ) );
#185 = PRODUCT_DEFINITION_FORMATION_WITH_SPECIFIED_SOURCE ( 'ANY', '', #54, .NOT_KNOWN. ) ;
#186 = ADVANCED_FACE ( 'NONE', ( #193 ), #80, .T. ) ;
#187 = ADVANCED_FACE ( 'NONE', ( #29 ), #188, .T. ) ;
#188 = CONICAL_SURFACE ( 'NONE', #190, 14.15881904510251300, 1.308996938995753600 ) ;
#189 = VERTEX_POINT ( 'NONE', #230 ) ;
#190 = AXIS2_PLACEMENT_3D ( 'NONE', #20, #45, #231 ) ;
#191 = PRODUCT_DEFINITION_SHAPE ( 'NONE', 'NONE',  #172 ) ;
#192 = DIRECTION ( 'NONE',  ( -1.000000000000000000, 0.0000000000000000000, 0.0000000000000000000 ) ) ;
#193 = FACE_OUTER_BOUND ( 'NONE', #200, .T. ) ;
#194 = CARTESIAN_POINT ( 'NONE',  ( 0.0000000000000000000, 0.0000000000000000000, 2.232673012021034500 ) ) ;
#195 = ORIENTED_EDGE ( 'NONE', *, *, #73, .F. ) ;
#196 = EDGE_CURVE ( 'NONE', #183, #135, #181, .T. ) ;
#197 = LINE ( 'NONE', #145, #11 ) ;
#198 = PRODUCT_RELATED_PRODUCT_CATEGORY ( 'part', '', ( #54 ) ) ;
#199 = DIRECTION ( 'NONE',  ( -0.0000000000000000000, -0.0000000000000000000, -1.000000000000000000 ) ) ;
#200 = EDGE_LOOP ( 'NONE', ( #86, #173, #148, #214 ) ) ;
#201 = ORIENTED_EDGE ( 'NONE', *, *, #169, .F. ) ;
#202 = DIRECTION ( 'NONE',  ( 0.0000000000000000000, -1.000000000000000000, 0.0000000000000000000 ) ) ;
#203 = AXIS2_PLACEMENT_3D ( 'NONE', #4, #132, #212 ) ;
#204 = CARTESIAN_POINT ( 'NONE',  ( 14.89999999999999900, 1.824723730729555800E-015, 2.232673012021034500 ) ) ;
#205 = ORIENTED_EDGE ( 'NONE', *, *, #158, .T. ) ;
#206 = ADVANCED_FACE ( 'NONE', ( #141 ), #147, .T. ) ;
#207 = EDGE_CURVE ( 'NONE', #55, #209, #234, .T. ) ;
#208 = UNCERTAINTY_MEASURE_WITH_UNIT (LENGTH_MEASURE( 1.000000000000000100E-005 ), #125, 'distance_accuracy_value', 'NONE');
#209 = VERTEX_POINT ( 'NONE', #210 ) ;
#210 = CARTESIAN_POINT ( 'NONE',  ( 14.90000000000000000, 1.824723730729556200E-015, 0.0000000000000000000 ) ) ;
#211 = DIRECTION ( 'NONE',  ( -0.0000000000000000000, -0.0000000000000000000, -1.000000000000000000 ) ) ;
#212 = DIRECTION ( 'NONE',  ( -1.000000000000000000, 0.0000000000000000000, 0.0000000000000000000 ) ) ;
#213 = DIRECTION ( 'NONE',  ( 0.9659258262890699800, 1.182917971378671800E-016, -0.2588190451025145200 ) ) ;
#214 = ORIENTED_EDGE ( 'NONE', *, *, #65, .F. ) ;
#215 = AXIS2_PLACEMENT_3D ( 'NONE', #175, #19, #1 ) ;
#216 = CARTESIAN_POINT ( 'NONE',  ( 0.0000000000000000000, 0.0000000000000000000, 2.232673012021034500 ) ) ;
#217 = ORIENTED_EDGE ( 'NONE', *, *, #143, .T. ) ;
#218 = CARTESIAN_POINT ( 'NONE',  ( 0.0000000000000000000, 0.0000000000000000000, 0.0000000000000000000 ) ) ;
#219 = FILL_AREA_STYLE ('',( #50 ) ) ;
#220 = EDGE_CURVE ( 'NONE', #189, #183, #43, .T. ) ;
#221 =( NAMED_UNIT ( * ) SI_UNIT ( $, .STERADIAN. ) SOLID_ANGLE_UNIT ( ) );
#222 = CIRCLE ( 'NONE', #21, 14.90000000000000000 ) ;
#223 = MANIFOLD_SOLID_BREP ( 'Rotation1', #128 ) ;
#224 = ORIENTED_EDGE ( 'NONE', *, *, #220, .T. ) ;
#225 = AXIS2_PLACEMENT_3D ( 'NONE', #114, #226, #134 ) ;
#226 = DIRECTION ( 'NONE',  ( -0.0000000000000000000, -0.0000000000000000000, -1.000000000000000000 ) ) ;
#227 = CIRCLE ( 'NONE', #152, 0.9999999999999991100 ) ;
#228 = VERTEX_POINT ( 'NONE', #174 ) ;
#229 = EDGE_CURVE ( 'NONE', #183, #55, #197, .T. ) ;
#230 = CARTESIAN_POINT ( 'NONE',  ( -14.15881904510251300, 0.0000000000000000000, 3.198598838310104100 ) ) ;
#231 = DIRECTION ( 'NONE',  ( -1.000000000000000000, 0.0000000000000000000, 0.0000000000000000000 ) ) ;
#232 = CARTESIAN_POINT ( 'NONE',  ( -14.15881904510251300, 0.0000000000000000000, 3.198598838310104100 ) ) ;
#233 = APPLICATION_PROTOCOL_DEFINITION ( 'draft international standard', 'automotive_design', 1998, #138 ) ;
#234 = CIRCLE ( 'NONE', #225, 14.90000000000000000 ) ;
#235 = EDGE_LOOP ( 'NONE', ( #37, #44 ) ) ;
#236 =( NAMED_UNIT ( * ) PLANE_ANGLE_UNIT ( ) SI_UNIT ( $, .RADIAN. ) );
#237 = PLANE ( 'NONE',  #109 ) ;
#238 = AXIS2_PLACEMENT_3D ( 'NONE', #82, #202, #164 ) ;
#239 = ORIENTED_EDGE ( 'NONE', *, *, #129, .F. ) ;
#240 = ORIENTED_EDGE ( 'NONE', *, *, #158, .F. ) ;
#241 = AXIS2_PLACEMENT_3D ( 'NONE', #216, #121, #122 ) ;
#242 = CARTESIAN_POINT ( 'NONE',  ( 0.0000000000000000000, 0.0000000000000000000, 2.232673012021034500 ) ) ;
ENDSEC;
END-ISO-10303-21;
