ISO-10303-21;
/* Copyright TRINOS Vakuum-Systeme GmbH */
HEADER;
FILE_DESCRIPTION (( 'STEP AP214' ),
    '1' );
FILE_NAME ('306 DOR 500-S1.step',
    '2012-07-05T19:55:33',
    ( '' ),
    ( '' ),
    'SwSTEP 2.0',
    'SolidWorks 2010',
    '' );
FILE_SCHEMA (( 'AUTOMOTIVE_DESIGN' ));
ENDSEC;

DATA;
#1 = AXIS2_PLACEMENT_3D ( 'NONE', #100, #106, #98 ) ;
#2 = SURFACE_STYLE_FILL_AREA ( #120 ) ;
#3 = EDGE_LOOP ( 'NONE', ( #7, #25, #11, #4 ) ) ;
#4 = ORIENTED_EDGE ( 'NONE', *, *, #154, .F. ) ;
#5 = EDGE_LOOP ( 'NONE', ( #12, #16, #9, #18 ) ) ;
#6 = EDGE_LOOP ( 'NONE', ( #19, #39, #20, #17 ) ) ;
#7 = ORIENTED_EDGE ( 'NONE', *, *, #157, .F. ) ;
#8 = ORIENTED_EDGE ( 'NONE', *, *, #158, .T. ) ;
#9 = ORIENTED_EDGE ( 'NONE', *, *, #154, .T. ) ;
#10 = EDGE_LOOP ( 'NONE', ( #45, #8, #37, #28 ) ) ;
#11 = ORIENTED_EDGE ( 'NONE', *, *, #151, .T. ) ;
#12 = ORIENTED_EDGE ( 'NONE', *, *, #155, .F. ) ;
#13 = CIRCLE ( 'NONE', #139, 262.9900000000000100 ) ;
#14 = CIRCLE ( 'NONE', #140, 256.0000000000000600 ) ;
#15 = CIRCLE ( 'NONE', #141, 3.494999999999970400 ) ;
#16 = ORIENTED_EDGE ( 'NONE', *, *, #62, .F. ) ;
#17 = ORIENTED_EDGE ( 'NONE', *, *, #62, .T. ) ;
#18 = ORIENTED_EDGE ( 'NONE', *, *, #152, .T. ) ;
#19 = ORIENTED_EDGE ( 'NONE', *, *, #158, .F. ) ;
#20 = ORIENTED_EDGE ( 'NONE', *, *, #156, .T. ) ;
#21 =( GEOMETRIC_REPRESENTATION_CONTEXT ( 3 ) GLOBAL_UNCERTAINTY_ASSIGNED_CONTEXT ( ( #53 ) ) GLOBAL_UNIT_ASSIGNED_CONTEXT ( ( #117, #116, #115 ) ) REPRESENTATION_CONTEXT ( 'NONE', 'WORKASPACE' ) );
#22 = FACE_OUTER_BOUND ( 'NONE', #10, .T. ) ;
#23 = STYLED_ITEM ( 'NONE', ( #38 ), #54 ) ;
#24 = CIRCLE ( 'NONE', #137, 256.0000000000000600 ) ;
#25 = ORIENTED_EDGE ( 'NONE', *, *, #155, .T. ) ;
#26 = CIRCLE ( 'NONE', #136, 3.494999999999970400 ) ;
#27 = CIRCLE ( 'NONE', #103, 3.494999999999970400 ) ;
#28 = ORIENTED_EDGE ( 'NONE', *, *, #156, .F. ) ;
#29 = TOROIDAL_SURFACE ( 'NONE', #102, 259.4950000000000000, 3.494999999999997900 ) ;
#30 = FACE_OUTER_BOUND ( 'NONE', #5, .T. ) ;
#31 =( GEOMETRIC_REPRESENTATION_CONTEXT ( 3 ) GLOBAL_UNCERTAINTY_ASSIGNED_CONTEXT ( ( #52 ) ) GLOBAL_UNIT_ASSIGNED_CONTEXT ( ( #82, #76, #73 ) ) REPRESENTATION_CONTEXT ( 'NONE', 'WORKASPACE' ) );
#32 = COLOUR_RGB ( '',0.2509803921568627400, 0.2509803921568627400, 0.2509803921568627400 ) ;
#33 = STYLED_ITEM ( 'NONE', ( #50 ), #51 ) ;
#34 = SHAPE_DEFINITION_REPRESENTATION ( #130, #51 ) ;
#35 =( GEOMETRIC_REPRESENTATION_CONTEXT ( 3 ) GLOBAL_UNCERTAINTY_ASSIGNED_CONTEXT ( ( #55 ) ) GLOBAL_UNIT_ASSIGNED_CONTEXT ( ( #68, #67, #66 ) ) REPRESENTATION_CONTEXT ( 'NONE', 'WORKASPACE' ) );
#36 = CLOSED_SHELL ( 'NONE', ( #132, #131, #133, #134 ) ) ;
#37 = ORIENTED_EDGE ( 'NONE', *, *, #157, .T. ) ;
#38 = PRESENTATION_STYLE_ASSIGNMENT (( #118 ) ) ;
#39 = ORIENTED_EDGE ( 'NONE', *, *, #152, .F. ) ;
#40 = FACE_OUTER_BOUND ( 'NONE', #3, .T. ) ;
#41 = COLOUR_RGB ( '',0.2509803921568627400, 0.2509803921568627400, 0.2509803921568627400 ) ;
#42 = CIRCLE ( 'NONE', #135, 3.494999999999970400 ) ;
#43 = SURFACE_STYLE_FILL_AREA ( #71 ) ;
#44 = TOROIDAL_SURFACE ( 'NONE', #56, 259.4950000000000000, 3.494999999999997900 ) ;
#45 = ORIENTED_EDGE ( 'NONE', *, *, #151, .F. ) ;
#46 = FACE_OUTER_BOUND ( 'NONE', #6, .T. ) ;
#47 = TOROIDAL_SURFACE ( 'NONE', #1, 259.4950000000000000, 3.494999999999997900 ) ;
#48 = TOROIDAL_SURFACE ( 'NONE', #150, 259.4950000000000000, 3.494999999999997900 ) ;
#49 = CIRCLE ( 'NONE', #138, 262.9900000000000100 ) ;
#50 = PRESENTATION_STYLE_ASSIGNMENT (( #69 ) ) ;
#51 = ADVANCED_BREP_SHAPE_REPRESENTATION ( '306 DOR 500-S1', ( #54, #144 ), #31 ) ;
#52 = UNCERTAINTY_MEASURE_WITH_UNIT (LENGTH_MEASURE( 1.000000000000000100E-005 ), #82, 'distance_accuracy_value', 'NONE');
#53 = UNCERTAINTY_MEASURE_WITH_UNIT (LENGTH_MEASURE( 1.000000000000000100E-005 ), #117, 'distance_accuracy_value', 'NONE');
#54 = MANIFOLD_SOLID_BREP ( 'Rotation1', #36 ) ;
#55 = UNCERTAINTY_MEASURE_WITH_UNIT (LENGTH_MEASURE( 1.000000000000000100E-005 ), #68, 'distance_accuracy_value', 'NONE');
#56 = AXIS2_PLACEMENT_3D ( 'NONE', #97, #107, #95 ) ;
#57 = APPLICATION_PROTOCOL_DEFINITION ( 'draft international standard', 'automotive_design', 1998, #58 ) ;
#58 = APPLICATION_CONTEXT ( 'automotive_design' ) ;
#59 = PRODUCT_CONTEXT ( 'NONE', #61, 'mechanical' ) ;
#60 = APPLICATION_PROTOCOL_DEFINITION ( 'draft international standard', 'automotive_design', 1998, #61 ) ;
#61 = APPLICATION_CONTEXT ( 'automotive_design' ) ;
#62 = EDGE_CURVE ( 'NONE', #123, #122, #27, .T. ) ;
#63 = DIRECTION ( 'NONE',  ( 1.000000000000000000, 0.0000000000000000000, 0.0000000000000000000 ) ) ;
#64 = DIRECTION ( 'NONE',  ( 0.0000000000000000000, 0.0000000000000000000, 1.000000000000000000 ) ) ;
#65 = CARTESIAN_POINT ( 'NONE',  ( 0.0000000000000000000, 0.0000000000000000000, 0.0000000000000000000 ) ) ;
#66 =( NAMED_UNIT ( * ) SI_UNIT ( $, .STERADIAN. ) SOLID_ANGLE_UNIT ( ) );
#67 =( NAMED_UNIT ( * ) PLANE_ANGLE_UNIT ( ) SI_UNIT ( $, .RADIAN. ) );
#68 =( LENGTH_UNIT ( ) NAMED_UNIT ( * ) SI_UNIT ( .MILLI., .METRE. ) );
#69 = SURFACE_STYLE_USAGE ( .BOTH. , #70 ) ;
#70 = SURFACE_SIDE_STYLE ('',( #43 ) ) ;
#71 = FILL_AREA_STYLE ('',( #72 ) ) ;
#72 = FILL_AREA_STYLE_COLOUR ( '', #32 ) ;
#73 =( NAMED_UNIT ( * ) SI_UNIT ( $, .STERADIAN. ) SOLID_ANGLE_UNIT ( ) );
#74 = DIRECTION ( 'NONE',  ( 0.0000000000000000000, 0.0000000000000000000, 1.000000000000000000 ) ) ;
#75 = DIRECTION ( 'NONE',  ( -1.000000000000000000, -0.0000000000000000000, -0.0000000000000000000 ) ) ;
#76 =( NAMED_UNIT ( * ) PLANE_ANGLE_UNIT ( ) SI_UNIT ( $, .RADIAN. ) );
#77 = CARTESIAN_POINT ( 'NONE',  ( 0.0000000000000000000, 0.0000000000000000000, 0.0000000000000000000 ) ) ;
#78 = DIRECTION ( 'NONE',  ( 0.0000000000000000000, -1.224646799147368500E-016, 1.000000000000000000 ) ) ;
#79 = DIRECTION ( 'NONE',  ( -0.0000000000000000000, 1.000000000000000000, 1.224646799147353200E-016 ) ) ;
#80 = DIRECTION ( 'NONE',  ( 0.0000000000000000000, 0.0000000000000000000, 1.000000000000000000 ) ) ;
#81 = DIRECTION ( 'NONE',  ( -1.000000000000000000, -0.0000000000000000000, -0.0000000000000000000 ) ) ;
#82 =( LENGTH_UNIT ( ) NAMED_UNIT ( * ) SI_UNIT ( .MILLI., .METRE. ) );
#83 = DIRECTION ( 'NONE',  ( 0.0000000000000000000, 0.0000000000000000000, 1.000000000000000000 ) ) ;
#84 = DIRECTION ( 'NONE',  ( -1.000000000000000000, -0.0000000000000000000, -0.0000000000000000000 ) ) ;
#85 = CARTESIAN_POINT ( 'NONE',  ( 0.0000000000000000000, 3.177897211447425000E-014, -259.4950000000000000 ) ) ;
#86 = DIRECTION ( 'NONE',  ( 0.0000000000000000000, 0.0000000000000000000, 1.000000000000000000 ) ) ;
#87 = DIRECTION ( 'NONE',  ( -1.000000000000000000, -0.0000000000000000000, -0.0000000000000000000 ) ) ;
#88 = CARTESIAN_POINT ( 'NONE',  ( 4.280140563019996800E-016, 0.0000000000000000000, 0.0000000000000000000 ) ) ;
#89 = CARTESIAN_POINT ( 'NONE',  ( 4.280140563019996800E-016, 0.0000000000000000000, 0.0000000000000000000 ) ) ;
#90 = DIRECTION ( 'NONE',  ( 0.0000000000000000000, 0.0000000000000000000, -1.000000000000000000 ) ) ;
#91 = DIRECTION ( 'NONE',  ( 0.0000000000000000000, -1.000000000000000000, 0.0000000000000000000 ) ) ;
#92 = CARTESIAN_POINT ( 'NONE',  ( 0.0000000000000000000, 0.0000000000000000000, 259.4950000000000000 ) ) ;
#93 = DIRECTION ( 'NONE',  ( 0.0000000000000000000, 0.0000000000000000000, -1.000000000000000000 ) ) ;
#94 = DIRECTION ( 'NONE',  ( 0.0000000000000000000, -1.000000000000000000, 0.0000000000000000000 ) ) ;
#95 = DIRECTION ( 'NONE',  ( 0.0000000000000000000, 0.0000000000000000000, 1.000000000000000000 ) ) ;
#96 = CARTESIAN_POINT ( 'NONE',  ( 0.0000000000000000000, 0.0000000000000000000, 259.4950000000000000 ) ) ;
#97 = CARTESIAN_POINT ( 'NONE',  ( 0.0000000000000000000, 0.0000000000000000000, 0.0000000000000000000 ) ) ;
#98 = DIRECTION ( 'NONE',  ( 0.0000000000000000000, 0.0000000000000000000, 1.000000000000000000 ) ) ;
#99 = CARTESIAN_POINT ( 'NONE',  ( 0.0000000000000000000, 0.0000000000000000000, 0.0000000000000000000 ) ) ;
#100 = CARTESIAN_POINT ( 'NONE',  ( 0.0000000000000000000, 0.0000000000000000000, 0.0000000000000000000 ) ) ;
#101 = DIRECTION ( 'NONE',  ( 0.0000000000000000000, 0.0000000000000000000, 1.000000000000000000 ) ) ;
#102 = AXIS2_PLACEMENT_3D ( 'NONE', #104, #126, #101 ) ;
#103 = AXIS2_PLACEMENT_3D ( 'NONE', #114, #113, #112 ) ;
#104 = CARTESIAN_POINT ( 'NONE',  ( 0.0000000000000000000, 0.0000000000000000000, 0.0000000000000000000 ) ) ;
#105 = DIRECTION ( 'NONE',  ( 0.0000000000000000000, 0.0000000000000000000, 1.000000000000000000 ) ) ;
#106 = DIRECTION ( 'NONE',  ( -1.000000000000000000, -0.0000000000000000000, -0.0000000000000000000 ) ) ;
#107 = DIRECTION ( 'NONE',  ( -1.000000000000000000, -0.0000000000000000000, -0.0000000000000000000 ) ) ;
#108 = CARTESIAN_POINT ( 'NONE',  ( 0.0000000000000000000, 0.0000000000000000000, 0.0000000000000000000 ) ) ;
#109 = CARTESIAN_POINT ( 'NONE',  ( 0.0000000000000000000, 0.0000000000000000000, 256.0000000000000600 ) ) ;
#110 = CARTESIAN_POINT ( 'NONE',  ( 0.0000000000000000000, 0.0000000000000000000, 262.9900000000000100 ) ) ;
#111 = DIRECTION ( 'NONE',  ( -1.000000000000000000, -0.0000000000000000000, -0.0000000000000000000 ) ) ;
#112 = DIRECTION ( 'NONE',  ( 0.0000000000000000000, -1.224646799147368500E-016, 1.000000000000000000 ) ) ;
#113 = DIRECTION ( 'NONE',  ( -0.0000000000000000000, 1.000000000000000000, 1.224646799147353200E-016 ) ) ;
#114 = CARTESIAN_POINT ( 'NONE',  ( 0.0000000000000000000, 3.177897211447425000E-014, -259.4950000000000000 ) ) ;
#115 =( NAMED_UNIT ( * ) SI_UNIT ( $, .STERADIAN. ) SOLID_ANGLE_UNIT ( ) );
#116 =( NAMED_UNIT ( * ) PLANE_ANGLE_UNIT ( ) SI_UNIT ( $, .RADIAN. ) );
#117 =( LENGTH_UNIT ( ) NAMED_UNIT ( * ) SI_UNIT ( .MILLI., .METRE. ) );
#118 = SURFACE_STYLE_USAGE ( .BOTH. , #119 ) ;
#119 = SURFACE_SIDE_STYLE ('',( #2 ) ) ;
#120 = FILL_AREA_STYLE ('',( #127 ) ) ;
#121 = CARTESIAN_POINT ( 'NONE',  ( 0.0000000000000000000, 3.135095805817224800E-014, -256.0000000000000600 ) ) ;
#122 = VERTEX_POINT ( 'NONE', #124 ) ;
#123 = VERTEX_POINT ( 'NONE', #121 ) ;
#124 = CARTESIAN_POINT ( 'NONE',  ( 0.0000000000000000000, 3.220698617077625200E-014, -262.9900000000000100 ) ) ;
#125 = VERTEX_POINT ( 'NONE', #110 ) ;
#126 = DIRECTION ( 'NONE',  ( -1.000000000000000000, -0.0000000000000000000, -0.0000000000000000000 ) ) ;
#127 = FILL_AREA_STYLE_COLOUR ( '', #41 ) ;
#128 = VERTEX_POINT ( 'NONE', #109 ) ;
#129 = PRODUCT_DEFINITION_CONTEXT ( 'detailed design', #58, 'design' ) ;
#130 = PRODUCT_DEFINITION_SHAPE ( 'NONE', 'NONE',  #145 ) ;
#131 = ADVANCED_FACE ( 'NONE', ( #22 ), #48, .T. ) ;
#132 = ADVANCED_FACE ( 'NONE', ( #40 ), #29, .T. ) ;
#133 = ADVANCED_FACE ( 'NONE', ( #46 ), #47, .T. ) ;
#134 = ADVANCED_FACE ( 'NONE', ( #30 ), #44, .T. ) ;
#135 = AXIS2_PLACEMENT_3D ( 'NONE', #92, #91, #90 ) ;
#136 = AXIS2_PLACEMENT_3D ( 'NONE', #96, #94, #93 ) ;
#137 = AXIS2_PLACEMENT_3D ( 'NONE', #89, #87, #86 ) ;
#138 = AXIS2_PLACEMENT_3D ( 'NONE', #77, #75, #74 ) ;
#139 = AXIS2_PLACEMENT_3D ( 'NONE', #99, #84, #83 ) ;
#140 = AXIS2_PLACEMENT_3D ( 'NONE', #88, #81, #80 ) ;
#141 = AXIS2_PLACEMENT_3D ( 'NONE', #85, #79, #78 ) ;
#142 = PRESENTATION_LAYER_ASSIGNMENT (  '', '', ( #33 ) ) ;
#143 = MECHANICAL_DESIGN_GEOMETRIC_PRESENTATION_REPRESENTATION (  '', ( #33 ), #35 ) ;
#144 = AXIS2_PLACEMENT_3D ( 'NONE', #65, #64, #63 ) ;
#145 = PRODUCT_DEFINITION ( 'UNKNOWN', '', #146, #129 ) ;
#146 = PRODUCT_DEFINITION_FORMATION_WITH_SPECIFIED_SOURCE ( 'ANY', '', #148, .NOT_KNOWN. ) ;
#147 = PRODUCT_RELATED_PRODUCT_CATEGORY ( 'part', '', ( #148 ) ) ;
#148 = PRODUCT ( '306 DOR 500-S1', '306 DOR 500-S1', '', ( #59 ) ) ;
#149 = PRESENTATION_LAYER_ASSIGNMENT (  '', '', ( #23 ) ) ;
#150 = AXIS2_PLACEMENT_3D ( 'NONE', #108, #111, #105 ) ;
#151 = EDGE_CURVE ( 'NONE', #125, #128, #26, .T. ) ;
#152 = EDGE_CURVE ( 'NONE', #128, #125, #42, .T. ) ;
#153 = MECHANICAL_DESIGN_GEOMETRIC_PRESENTATION_REPRESENTATION (  '', ( #23 ), #21 ) ;
#154 = EDGE_CURVE ( 'NONE', #123, #128, #24, .T. ) ;
#155 = EDGE_CURVE ( 'NONE', #122, #125, #13, .T. ) ;
#156 = EDGE_CURVE ( 'NONE', #128, #123, #14, .T. ) ;
#157 = EDGE_CURVE ( 'NONE', #122, #123, #15, .T. ) ;
#158 = EDGE_CURVE ( 'NONE', #125, #122, #49, .T. ) ;
ENDSEC;
END-ISO-10303-21;
