ISO-10303-21;
HEADER;
FILE_DESCRIPTION (( 'STEP AP214' ),
    '1' );
FILE_NAME ('301DOR063-S1.step',
    '2017-07-07T05:04:41',
    ( 'install' ),
    ( '' ),
    'SwSTEP 2.0',
    'SolidWorks 2015',
    '' );
FILE_SCHEMA (( 'AUTOMOTIVE_DESIGN' ));
ENDSEC;

DATA;
#1 = DIRECTION ( 'NONE',  ( -1.000000000000000000, 0.0000000000000000000, 0.0000000000000000000 ) ) ;
#2 = ORIENTED_EDGE ( 'NONE', *, *, #30, .T. ) ;
#3 = ORIENTED_EDGE ( 'NONE', *, *, #62, .T. ) ;
#4 = AXIS2_PLACEMENT_3D ( 'NONE', #140, #137, #138 ) ;
#5 = CIRCLE ( 'NONE', #111, 43.32999999999999800 ) ;
#6 = DIRECTION ( 'NONE',  ( -0.0000000000000000000, -0.0000000000000000000, -1.000000000000000000 ) ) ;
#7 = APPLICATION_PROTOCOL_DEFINITION ( 'draft international standard', 'automotive_design', 1998, #131 ) ;
#8 = CARTESIAN_POINT ( 'NONE',  ( 0.0000000000000000000, 0.0000000000000000000, 0.0000000000000000000 ) ) ;
#9 =( GEOMETRIC_REPRESENTATION_CONTEXT ( 3 ) GLOBAL_UNCERTAINTY_ASSIGNED_CONTEXT ( ( #75 ) ) GLOBAL_UNIT_ASSIGNED_CONTEXT ( ( #124, #90, #24 ) ) REPRESENTATION_CONTEXT ( 'NONE', 'WORKASPACE' ) );
#10 = ORIENTED_EDGE ( 'NONE', *, *, #55, .T. ) ;
#11 = CARTESIAN_POINT ( 'NONE',  ( -38.00000000000000000, 0.0000000000000000000, 3.263683719727700000E-016 ) ) ;
#12 = DIRECTION ( 'NONE',  ( 0.0000000000000000000, 0.0000000000000000000, -1.000000000000000000 ) ) ;
#13 = CIRCLE ( 'NONE', #77, 2.665000000000001800 ) ;
#14 = DIRECTION ( 'NONE',  ( -1.000000000000000000, 0.0000000000000000000, 0.0000000000000000000 ) ) ;
#15 = DIRECTION ( 'NONE',  ( -0.0000000000000000000, -0.0000000000000000000, -1.000000000000000000 ) ) ;
#16 = CIRCLE ( 'NONE', #142, 2.665000000000001800 ) ;
#17 = DIRECTION ( 'NONE',  ( -0.0000000000000000000, -0.0000000000000000000, -1.000000000000000000 ) ) ;
#18 = PRESENTATION_STYLE_ASSIGNMENT (( #27 ) ) ;
#19 = ORIENTED_EDGE ( 'NONE', *, *, #135, .T. ) ;
#20 = ORIENTED_EDGE ( 'NONE', *, *, #144, .T. ) ;
#21 = FACE_OUTER_BOUND ( 'NONE', #102, .T. ) ;
#22 = ADVANCED_FACE ( 'NONE', ( #117 ), #38, .T. ) ;
#23 = DIRECTION ( 'NONE',  ( 0.0000000000000000000, -1.000000000000000000, 0.0000000000000000000 ) ) ;
#24 =( NAMED_UNIT ( * ) SI_UNIT ( $, .STERADIAN. ) SOLID_ANGLE_UNIT ( ) );
#25 = ORIENTED_EDGE ( 'NONE', *, *, #135, .F. ) ;
#26 = TOROIDAL_SURFACE ( 'NONE', #139, 40.66499999999999900, 2.665000000000001800 ) ;
#27 = SURFACE_STYLE_USAGE ( .BOTH. , #158 ) ;
#28 = CARTESIAN_POINT ( 'NONE',  ( -40.66499999999999900, 0.0000000000000000000, 0.0000000000000000000 ) ) ;
#29 = DIRECTION ( 'NONE',  ( -0.0000000000000000000, -0.0000000000000000000, -1.000000000000000000 ) ) ;
#30 = EDGE_CURVE ( 'NONE', #46, #149, #104, .T. ) ;
#31 = TOROIDAL_SURFACE ( 'NONE', #134, 40.66499999999999900, 2.665000000000001800 ) ;
#32 = STYLED_ITEM ( 'NONE', ( #151 ), #96 ) ;
#33 = DIRECTION ( 'NONE',  ( 0.0000000000000000000, 0.0000000000000000000, 1.000000000000000000 ) ) ;
#34 = CARTESIAN_POINT ( 'NONE',  ( 0.0000000000000000000, 0.0000000000000000000, 0.0000000000000000000 ) ) ;
#35 = PRODUCT_CONTEXT ( 'NONE', #150, 'mechanical' ) ;
#36 = FACE_OUTER_BOUND ( 'NONE', #66, .T. ) ;
#37 = CIRCLE ( 'NONE', #47, 2.665000000000000900 ) ;
#38 = TOROIDAL_SURFACE ( 'NONE', #4, 40.66499999999999900, 2.665000000000001800 ) ;
#39 = COLOUR_RGB ( '',0.6980392156862744700, 0.6980392156862744700, 0.6980392156862744700 ) ;
#40 = STYLED_ITEM ( 'NONE', ( #18 ), #82 ) ;
#41 = CARTESIAN_POINT ( 'NONE',  ( 0.0000000000000000000, 0.0000000000000000000, 3.263683719727698600E-016 ) ) ;
#42 = CARTESIAN_POINT ( 'NONE',  ( 0.0000000000000000000, 0.0000000000000000000, 0.0000000000000000000 ) ) ;
#43 = FACE_OUTER_BOUND ( 'NONE', #103, .T. ) ;
#44 = FILL_AREA_STYLE_COLOUR ( '', #39 ) ;
#45 = DIRECTION ( 'NONE',  ( -0.0000000000000000000, -0.0000000000000000000, -1.000000000000000000 ) ) ;
#46 = VERTEX_POINT ( 'NONE', #113 ) ;
#47 = AXIS2_PLACEMENT_3D ( 'NONE', #129, #60, #118 ) ;
#48 = ORIENTED_EDGE ( 'NONE', *, *, #57, .T. ) ;
#49 = SHAPE_DEFINITION_REPRESENTATION ( #99, #96 ) ;
#50 = ORIENTED_EDGE ( 'NONE', *, *, #133, .T. ) ;
#51 = AXIS2_PLACEMENT_3D ( 'NONE', #105, #153, #152 ) ;
#52 = ORIENTED_EDGE ( 'NONE', *, *, #70, .T. ) ;
#53 = ORIENTED_EDGE ( 'NONE', *, *, #55, .F. ) ;
#54 = DIRECTION ( 'NONE',  ( -1.224646799147353200E-016, 1.000000000000000000, 0.0000000000000000000 ) ) ;
#55 = EDGE_CURVE ( 'NONE', #73, #100, #109, .T. ) ;
#56 = SURFACE_SIDE_STYLE ('',( #78 ) ) ;
#57 = EDGE_CURVE ( 'NONE', #149, #46, #121, .T. ) ;
#58 = DIRECTION ( 'NONE',  ( 0.0000000000000000000, -1.000000000000000000, 0.0000000000000000000 ) ) ;
#59 = APPLICATION_PROTOCOL_DEFINITION ( 'draft international standard', 'automotive_design', 1998, #150 ) ;
#60 = DIRECTION ( 'NONE',  ( -1.224646799147353200E-016, 1.000000000000000000, 0.0000000000000000000 ) ) ;
#61 = ORIENTED_EDGE ( 'NONE', *, *, #144, .F. ) ;
#62 = EDGE_CURVE ( 'NONE', #46, #73, #83, .T. ) ;
#63 = ADVANCED_FACE ( 'NONE', ( #21 ), #116, .T. ) ;
#64 =( LENGTH_UNIT ( ) NAMED_UNIT ( * ) SI_UNIT ( .MILLI., .METRE. ) );
#65 = CARTESIAN_POINT ( 'NONE',  ( 0.0000000000000000000, 0.0000000000000000000, 0.0000000000000000000 ) ) ;
#66 = EDGE_LOOP ( 'NONE', ( #97, #10, #50, #106 ) ) ;
#67 = UNCERTAINTY_MEASURE_WITH_UNIT (LENGTH_MEASURE( 1.000000000000000100E-005 ), #64, 'distance_accuracy_value', 'NONE');
#68 =( NAMED_UNIT ( * ) PLANE_ANGLE_UNIT ( ) SI_UNIT ( $, .RADIAN. ) );
#69 =( LENGTH_UNIT ( ) NAMED_UNIT ( * ) SI_UNIT ( .MILLI., .METRE. ) );
#70 = EDGE_CURVE ( 'NONE', #73, #46, #37, .T. ) ;
#71 = UNCERTAINTY_MEASURE_WITH_UNIT (LENGTH_MEASURE( 1.000000000000000100E-005 ), #69, 'distance_accuracy_value', 'NONE');
#72 = CARTESIAN_POINT ( 'NONE',  ( -43.32999999999999800, 0.0000000000000000000, 0.0000000000000000000 ) ) ;
#73 = VERTEX_POINT ( 'NONE', #156 ) ;
#74 =( NAMED_UNIT ( * ) SI_UNIT ( $, .STERADIAN. ) SOLID_ANGLE_UNIT ( ) );
#75 = UNCERTAINTY_MEASURE_WITH_UNIT (LENGTH_MEASURE( 1.000000000000000100E-005 ), #124, 'distance_accuracy_value', 'NONE');
#76 = CARTESIAN_POINT ( 'NONE',  ( -40.66499999999999900, 0.0000000000000000000, 0.0000000000000000000 ) ) ;
#77 = AXIS2_PLACEMENT_3D ( 'NONE', #28, #58, #12 ) ;
#78 = SURFACE_STYLE_FILL_AREA ( #110 ) ;
#79 =( NAMED_UNIT ( * ) PLANE_ANGLE_UNIT ( ) SI_UNIT ( $, .RADIAN. ) );
#80 = PRODUCT_RELATED_PRODUCT_CATEGORY ( 'part', '', ( #145 ) ) ;
#81 = PRODUCT_DEFINITION_FORMATION_WITH_SPECIFIED_SOURCE ( 'ANY', '', #145, .NOT_KNOWN. ) ;
#82 = MANIFOLD_SOLID_BREP ( 'Rotation1', #132 ) ;
#83 = CIRCLE ( 'NONE', #114, 2.665000000000000900 ) ;
#84 = ADVANCED_FACE ( 'NONE', ( #43 ), #26, .T. ) ;
#85 = PRODUCT_DEFINITION ( 'UNKNOWN', '', #81, #157 ) ;
#86 =( NAMED_UNIT ( * ) SI_UNIT ( $, .STERADIAN. ) SOLID_ANGLE_UNIT ( ) );
#87 = AXIS2_PLACEMENT_3D ( 'NONE', #8, #33, #126 ) ;
#88 = DIRECTION ( 'NONE',  ( -1.000000000000000000, -1.224646799147354400E-016, 0.0000000000000000000 ) ) ;
#89 = CARTESIAN_POINT ( 'NONE',  ( 40.66499999999999900, 4.980026208732712000E-015, 0.0000000000000000000 ) ) ;
#90 =( NAMED_UNIT ( * ) PLANE_ANGLE_UNIT ( ) SI_UNIT ( $, .RADIAN. ) );
#91 = SURFACE_STYLE_FILL_AREA ( #136 ) ;
#92 = CARTESIAN_POINT ( 'NONE',  ( 0.0000000000000000000, 0.0000000000000000000, 0.0000000000000000000 ) ) ;
#93 = SURFACE_STYLE_USAGE ( .BOTH. , #56 ) ;
#94 = AXIS2_PLACEMENT_3D ( 'NONE', #42, #17, #14 ) ;
#95 = ORIENTED_EDGE ( 'NONE', *, *, #133, .F. ) ;
#96 = ADVANCED_BREP_SHAPE_REPRESENTATION ( '301DOR063-S1', ( #82, #87 ), #9 ) ;
#97 = ORIENTED_EDGE ( 'NONE', *, *, #70, .F. ) ;
#98 = ORIENTED_EDGE ( 'NONE', *, *, #57, .F. ) ;
#99 = PRODUCT_DEFINITION_SHAPE ( 'NONE', 'NONE',  #85 ) ;
#100 = VERTEX_POINT ( 'NONE', #72 ) ;
#101 = AXIS2_PLACEMENT_3D ( 'NONE', #41, #155, #127 ) ;
#102 = EDGE_LOOP ( 'NONE', ( #61, #25, #48, #3 ) ) ;
#103 = EDGE_LOOP ( 'NONE', ( #53, #125, #2, #19 ) ) ;
#104 = CIRCLE ( 'NONE', #51, 38.00000000000000000 ) ;
#105 = CARTESIAN_POINT ( 'NONE',  ( 0.0000000000000000000, 0.0000000000000000000, 3.263683719727698600E-016 ) ) ;
#106 = ORIENTED_EDGE ( 'NONE', *, *, #30, .F. ) ;
#107 = EDGE_LOOP ( 'NONE', ( #95, #20, #52, #98 ) ) ;
#108 = DIRECTION ( 'NONE',  ( -1.000000000000000000, 0.0000000000000000000, 0.0000000000000000000 ) ) ;
#109 = CIRCLE ( 'NONE', #94, 43.32999999999999800 ) ;
#110 = FILL_AREA_STYLE ('',( #115 ) ) ;
#111 = AXIS2_PLACEMENT_3D ( 'NONE', #141, #6, #108 ) ;
#112 =( GEOMETRIC_REPRESENTATION_CONTEXT ( 3 ) GLOBAL_UNCERTAINTY_ASSIGNED_CONTEXT ( ( #67 ) ) GLOBAL_UNIT_ASSIGNED_CONTEXT ( ( #64, #68, #86 ) ) REPRESENTATION_CONTEXT ( 'NONE', 'WORKASPACE' ) );
#113 = CARTESIAN_POINT ( 'NONE',  ( 38.00000000000000000, 4.653657836759941900E-015, 0.0000000000000000000 ) ) ;
#114 = AXIS2_PLACEMENT_3D ( 'NONE', #89, #54, #88 ) ;
#115 = FILL_AREA_STYLE_COLOUR ( '', #120 ) ;
#116 = TOROIDAL_SURFACE ( 'NONE', #148, 40.66499999999999900, 2.665000000000001800 ) ;
#117 = FACE_OUTER_BOUND ( 'NONE', #107, .T. ) ;
#118 = DIRECTION ( 'NONE',  ( -1.000000000000000000, -1.224646799147354400E-016, 0.0000000000000000000 ) ) ;
#119 = MECHANICAL_DESIGN_GEOMETRIC_PRESENTATION_REPRESENTATION (  '', ( #32 ), #112 ) ;
#120 = COLOUR_RGB ( '',0.6980392156862744700, 0.6980392156862744700, 0.6980392156862744700 ) ;
#121 = CIRCLE ( 'NONE', #101, 38.00000000000000000 ) ;
#122 = PRESENTATION_LAYER_ASSIGNMENT (  '', '', ( #40 ) ) ;
#123 = ADVANCED_FACE ( 'NONE', ( #36 ), #31, .T. ) ;
#124 =( LENGTH_UNIT ( ) NAMED_UNIT ( * ) SI_UNIT ( .MILLI., .METRE. ) );
#125 = ORIENTED_EDGE ( 'NONE', *, *, #62, .F. ) ;
#126 = DIRECTION ( 'NONE',  ( 1.000000000000000000, 0.0000000000000000000, 0.0000000000000000000 ) ) ;
#127 = DIRECTION ( 'NONE',  ( -1.000000000000000000, 0.0000000000000000000, 0.0000000000000000000 ) ) ;
#128 = DIRECTION ( 'NONE',  ( -1.000000000000000000, 0.0000000000000000000, 0.0000000000000000000 ) ) ;
#129 = CARTESIAN_POINT ( 'NONE',  ( 40.66499999999999900, 4.980026208732712000E-015, 0.0000000000000000000 ) ) ;
#130 = PRESENTATION_LAYER_ASSIGNMENT (  '', '', ( #32 ) ) ;
#131 = APPLICATION_CONTEXT ( 'automotive_design' ) ;
#132 = CLOSED_SHELL ( 'NONE', ( #123, #22, #63, #84 ) ) ;
#133 = EDGE_CURVE ( 'NONE', #100, #149, #16, .T. ) ;
#134 = AXIS2_PLACEMENT_3D ( 'NONE', #34, #45, #128 ) ;
#135 = EDGE_CURVE ( 'NONE', #149, #100, #13, .T. ) ;
#136 = FILL_AREA_STYLE ('',( #44 ) ) ;
#137 = DIRECTION ( 'NONE',  ( -0.0000000000000000000, -0.0000000000000000000, -1.000000000000000000 ) ) ;
#138 = DIRECTION ( 'NONE',  ( -1.000000000000000000, 0.0000000000000000000, 0.0000000000000000000 ) ) ;
#139 = AXIS2_PLACEMENT_3D ( 'NONE', #92, #29, #147 ) ;
#140 = CARTESIAN_POINT ( 'NONE',  ( 0.0000000000000000000, 0.0000000000000000000, 0.0000000000000000000 ) ) ;
#141 = CARTESIAN_POINT ( 'NONE',  ( 0.0000000000000000000, 0.0000000000000000000, 0.0000000000000000000 ) ) ;
#142 = AXIS2_PLACEMENT_3D ( 'NONE', #76, #23, #154 ) ;
#143 =( GEOMETRIC_REPRESENTATION_CONTEXT ( 3 ) GLOBAL_UNCERTAINTY_ASSIGNED_CONTEXT ( ( #71 ) ) GLOBAL_UNIT_ASSIGNED_CONTEXT ( ( #69, #79, #74 ) ) REPRESENTATION_CONTEXT ( 'NONE', 'WORKASPACE' ) );
#144 = EDGE_CURVE ( 'NONE', #100, #73, #5, .T. ) ;
#145 = PRODUCT ( '301DOR063-S1', '301DOR063-S1', '', ( #35 ) ) ;
#146 = MECHANICAL_DESIGN_GEOMETRIC_PRESENTATION_REPRESENTATION (  '', ( #40 ), #143 ) ;
#147 = DIRECTION ( 'NONE',  ( -1.000000000000000000, 0.0000000000000000000, 0.0000000000000000000 ) ) ;
#148 = AXIS2_PLACEMENT_3D ( 'NONE', #65, #15, #1 ) ;
#149 = VERTEX_POINT ( 'NONE', #11 ) ;
#150 = APPLICATION_CONTEXT ( 'automotive_design' ) ;
#151 = PRESENTATION_STYLE_ASSIGNMENT (( #93 ) ) ;
#152 = DIRECTION ( 'NONE',  ( -1.000000000000000000, 0.0000000000000000000, 0.0000000000000000000 ) ) ;
#153 = DIRECTION ( 'NONE',  ( -0.0000000000000000000, -0.0000000000000000000, -1.000000000000000000 ) ) ;
#154 = DIRECTION ( 'NONE',  ( 0.0000000000000000000, 0.0000000000000000000, -1.000000000000000000 ) ) ;
#155 = DIRECTION ( 'NONE',  ( -0.0000000000000000000, -0.0000000000000000000, -1.000000000000000000 ) ) ;
#156 = CARTESIAN_POINT ( 'NONE',  ( 43.32999999999999800, 5.306394580705481300E-015, 0.0000000000000000000 ) ) ;
#157 = PRODUCT_DEFINITION_CONTEXT ( 'detailed design', #131, 'design' ) ;
#158 = SURFACE_SIDE_STYLE ('',( #91 ) ) ;
ENDSEC;
END-ISO-10303-21;
