ISO-10303-21;
HEADER;
/****************************************************************
 * Generated by software with PDE/Lib inside                    *
 * PDElib Version v51a, created Tue 12/06/2005                  *
 * International Technegroup Inc. (www.iti-oh.com)              *
 ****************************************************************/
FILE_DESCRIPTION((''),'2;1');
FILE_NAME('\\\\NAS04\\usleber$\\Step-File\\PK005639-U.stp','2009-03-10T10:42:33',('usleber'),(''),'Autodesk Inventor 11','Autodesk Inventor 11','');
FILE_SCHEMA(('AUTOMOTIVE_DESIGN { 1 0 10303 214 1 1 1 1 }'));
ENDSEC;
DATA;
#5=APPLICATION_CONTEXT('automotive design');
#6=APPLICATION_PROTOCOL_DEFINITION('International Standard','automotive_design',2001,#5);
#7=PRODUCT_CONTEXT('',#5,'mechanical');
#8=PRODUCT('PK005639-U','PK005639-U',$,(#7));
#9=PRODUCT_RELATED_PRODUCT_CATEGORY('part',$,(#8));
#10=PRODUCT_DEFINITION_FORMATION('',$,#8);
#11=PRODUCT_DEFINITION_CONTEXT('part definition',#5,'design');
#12=PRODUCT_DEFINITION('',$,#10,#11);
#18=(NAMED_UNIT(*)PLANE_ANGLE_UNIT()SI_UNIT($,.RADIAN.));
#19=DIMENSIONAL_EXPONENTS(0.0,0.0,0.0,0.0,0.0,0.0,0.0);
#20=PLANE_ANGLE_MEASURE_WITH_UNIT(PLANE_ANGLE_MEASURE(0.017453292500000),#18);
#24=(CONVERSION_BASED_UNIT('DEGREE',#20)NAMED_UNIT(#19)PLANE_ANGLE_UNIT());
#28=(NAMED_UNIT(*)SI_UNIT($,.STERADIAN.)SOLID_ANGLE_UNIT());
#32=(LENGTH_UNIT()NAMED_UNIT(*)SI_UNIT(.MILLI.,.METRE.));
#34=UNCERTAINTY_MEASURE_WITH_UNIT(LENGTH_MEASURE(0.010000000000000),#32,'DISTANCE_ACCURACY_VALUE','');
#36=(GEOMETRIC_REPRESENTATION_CONTEXT(3)GLOBAL_UNCERTAINTY_ASSIGNED_CONTEXT((#34))GLOBAL_UNIT_ASSIGNED_CONTEXT((#24,#28,#32))REPRESENTATION_CONTEXT('None','None'));
#37=AXIS2_PLACEMENT_3D('',#38,#39,#40);
#38=CARTESIAN_POINT('',(0.0,0.0,0.0));
#39=DIRECTION('',(0.0,0.0,1.0));
#40=DIRECTION('',(1.0,0.0,0.0));
#41=SHAPE_REPRESENTATION('',(#37),#36);
#42=PRODUCT_DEFINITION_SHAPE('','',#12);
#43=SHAPE_DEFINITION_REPRESENTATION(#42,#41);
#44=CARTESIAN_POINT('',(71.0,1.164731E-015,19.500000000000011));
#45=CARTESIAN_POINT('',(68.0,1.164731E-015,19.500000000000011));
#46=CARTESIAN_POINT('',(71.0,-19.499999999999996,19.500000000000004));
#47=CARTESIAN_POINT('',(68.0,-19.499999999999996,19.500000000000004));
#48=CARTESIAN_POINT('',(71.0,-19.499999999999996,7.381980E-015));
#49=CARTESIAN_POINT('',(68.0,-19.499999999999996,7.381980E-015));
#50=CARTESIAN_POINT('',(71.0,-19.499999999999989,-19.499999999999989));
#51=CARTESIAN_POINT('',(68.0,-19.499999999999989,-19.499999999999989));
#52=CARTESIAN_POINT('',(71.0,5.940696E-015,-19.499999999999989));
#53=CARTESIAN_POINT('',(68.0,5.940696E-015,-19.499999999999989));
#54=CARTESIAN_POINT('',(71.0,19.500000000000004,-19.499999999999986));
#55=CARTESIAN_POINT('',(68.0,19.500000000000004,-19.499999999999986));
#56=CARTESIAN_POINT('',(71.0,19.500000000000004,1.215795E-014));
#57=CARTESIAN_POINT('',(68.0,19.500000000000004,1.215795E-014));
#58=CARTESIAN_POINT('',(71.0,19.499999999999996,19.500000000000007));
#59=CARTESIAN_POINT('',(68.0,19.499999999999996,19.500000000000007));
#60=CARTESIAN_POINT('',(71.0,1.164731E-015,19.500000000000011));
#61=CARTESIAN_POINT('',(68.0,1.164731E-015,19.500000000000011));
#69=(BOUNDED_SURFACE()B_SPLINE_SURFACE(1,2,((#44,#46,#48,#50,#52,#54,#56,#58,#60),(#45,#47,#49,#51,#53,#55,#57,#59,#61)),.UNSPECIFIED.,.F.,.T.,.U.)B_SPLINE_SURFACE_WITH_KNOTS((2,2),(3,2,2,2,3),(-0.076923076923077,0.076923076923077),(0.0,30.630528372500482,61.261056745000964,91.891585117501450,122.522113490001930),.UNSPECIFIED.)GEOMETRIC_REPRESENTATION_ITEM()RATIONAL_B_SPLINE_SURFACE(((1.0,0.707106781186548,1.0,0.707106781186548,1.0,0.707106781186548,1.0,0.707106781186548,1.0),(1.0,0.707106781186548,1.0,0.707106781186548,1.0,0.707106781186548,1.0,0.707106781186548,1.0)))REPRESENTATION_ITEM('')SURFACE());
#70=CARTESIAN_POINT('',(71.0,3.552714E-015,-19.499999999999993));
#71=VERTEX_POINT('',#70);
#72=CARTESIAN_POINT('',(71.0,3.552714E-015,9.769963E-015));
#73=DIRECTION('',(-1.0,0.0,0.0));
#74=DIRECTION('',(0.0,0.0,-1.0));
#75=AXIS2_PLACEMENT_3D('',#72,#73,#74);
#76=CIRCLE('',#75,19.500000000000000);
#77=EDGE_CURVE('',#71,#71,#76,.T.);
#78=ORIENTED_EDGE('',*,*,#77,.F.);
#79=EDGE_LOOP('',(#78));
#80=FACE_OUTER_BOUND('',#79,.T.);
#81=CARTESIAN_POINT('',(68.0,3.552714E-015,-19.499999999999993));
#82=VERTEX_POINT('',#81);
#83=CARTESIAN_POINT('',(68.0,3.552714E-015,9.769963E-015));
#84=DIRECTION('',(1.0,0.0,0.0));
#85=DIRECTION('',(0.0,0.0,-1.0));
#86=AXIS2_PLACEMENT_3D('',#83,#84,#85);
#87=CIRCLE('',#86,19.500000000000000);
#88=EDGE_CURVE('',#82,#82,#87,.T.);
#89=ORIENTED_EDGE('',*,*,#88,.F.);
#90=EDGE_LOOP('',(#89));
#91=FACE_BOUND('',#90,.T.);
#92=ADVANCED_FACE('',(#80,#91),#69,.F.);
#93=CARTESIAN_POINT('',(68.0,19.500000000000004,19.500000000000011));
#94=CARTESIAN_POINT('',(68.0,19.500000000000004,-19.499999999999989));
#95=CARTESIAN_POINT('',(68.0,-19.499999999999996,19.500000000000011));
#96=CARTESIAN_POINT('',(68.0,-19.499999999999996,-19.499999999999989));
#97=B_SPLINE_SURFACE_WITH_KNOTS('',1,1,((#93,#95),(#94,#96)),.UNSPECIFIED.,.F.,.F.,.U.,(2,2),(2,2),(0.0,39.0),(0.0,39.0),.UNSPECIFIED.);
#98=ORIENTED_EDGE('',*,*,#88,.T.);
#99=EDGE_LOOP('',(#98));
#100=FACE_OUTER_BOUND('',#99,.T.);
#101=ADVANCED_FACE('',(#100),#97,.F.);
#102=CARTESIAN_POINT('',(26.0,-74.0,0.0));
#103=DIRECTION('',(0.0,1.0,0.0));
#104=DIRECTION('',(0.0,0.0,1.0));
#105=AXIS2_PLACEMENT_3D('',#102,#103,#104);
#106=CYLINDRICAL_SURFACE('',#105,17.000000000000007);
#107=CARTESIAN_POINT('',(26.0,-114.0,17.0));
#108=VERTEX_POINT('',#107);
#109=CARTESIAN_POINT('',(26.0,-114.0,0.0));
#110=DIRECTION('',(0.0,1.0,0.0));
#111=DIRECTION('',(0.0,0.0,1.0));
#112=AXIS2_PLACEMENT_3D('',#109,#110,#111);
#113=CIRCLE('',#112,17.0);
#114=EDGE_CURVE('',#108,#108,#113,.T.);
#115=ORIENTED_EDGE('',*,*,#114,.T.);
#116=EDGE_LOOP('',(#115));
#117=FACE_OUTER_BOUND('',#116,.T.);
#118=CARTESIAN_POINT('',(26.0,-69.0,-17.000000000000007));
#119=VERTEX_POINT('',#118);
#120=CARTESIAN_POINT('',(26.0,-69.0,0.0));
#121=DIRECTION('',(0.0,1.0,0.0));
#122=DIRECTION('',(0.0,0.0,1.0));
#123=AXIS2_PLACEMENT_3D('',#120,#121,#122);
#124=CIRCLE('',#123,17.000000000000007);
#125=EDGE_CURVE('',#119,#119,#124,.T.);
#126=ORIENTED_EDGE('',*,*,#125,.F.);
#127=EDGE_LOOP('',(#126));
#128=FACE_BOUND('',#127,.T.);
#129=ADVANCED_FACE('',(#117,#128),#106,.T.);
#130=CARTESIAN_POINT('',(26.0,-74.0,0.0));
#131=DIRECTION('',(0.0,1.0,0.0));
#132=DIRECTION('',(0.0,0.0,1.0));
#133=AXIS2_PLACEMENT_3D('',#130,#131,#132);
#134=CYLINDRICAL_SURFACE('',#133,17.000000000000007);
#135=CARTESIAN_POINT('',(26.0,-34.0,17.000000000000011));
#136=VERTEX_POINT('',#135);
#137=CARTESIAN_POINT('',(26.0,-34.0,0.0));
#138=DIRECTION('',(0.0,1.0,0.0));
#139=DIRECTION('',(0.0,0.0,1.0));
#140=AXIS2_PLACEMENT_3D('',#137,#138,#139);
#141=CIRCLE('',#140,17.000000000000011);
#142=EDGE_CURVE('',#136,#136,#141,.T.);
#143=ORIENTED_EDGE('',*,*,#142,.F.);
#144=EDGE_LOOP('',(#143));
#145=FACE_OUTER_BOUND('',#144,.T.);
#146=CARTESIAN_POINT('',(26.0,-45.0,-17.000000000000007));
#147=VERTEX_POINT('',#146);
#148=CARTESIAN_POINT('',(26.0,-45.0,0.0));
#149=DIRECTION('',(0.0,-1.0,0.0));
#150=DIRECTION('',(0.0,0.0,1.0));
#151=AXIS2_PLACEMENT_3D('',#148,#149,#150);
#152=CIRCLE('',#151,17.000000000000007);
#153=EDGE_CURVE('',#147,#147,#152,.T.);
#154=ORIENTED_EDGE('',*,*,#153,.F.);
#155=EDGE_LOOP('',(#154));
#156=FACE_BOUND('',#155,.T.);
#157=ADVANCED_FACE('',(#145,#156),#134,.T.);
#158=CARTESIAN_POINT('',(26.0,-34.0,8.500000000000005));
#159=DIRECTION('',(0.0,1.0,0.0));
#160=DIRECTION('',(0.0,0.0,1.0));
#161=AXIS2_PLACEMENT_3D('',#158,#159,#160);
#162=PLANE('',#161);
#163=ORIENTED_EDGE('',*,*,#142,.T.);
#164=EDGE_LOOP('',(#163));
#165=FACE_OUTER_BOUND('',#164,.T.);
#166=ADVANCED_FACE('',(#165),#162,.T.);
#167=CARTESIAN_POINT('',(26.0,-134.0,3.000000000000000));
#168=DIRECTION('',(0.0,-1.0,0.0));
#169=DIRECTION('',(0.0,0.0,-1.0));
#170=AXIS2_PLACEMENT_3D('',#167,#168,#169);
#171=PLANE('',#170);
#172=CARTESIAN_POINT('',(26.0,-134.0,6.000000000000001));
#173=VERTEX_POINT('',#172);
#174=CARTESIAN_POINT('',(26.0,-134.0,0.0));
#175=DIRECTION('',(0.0,1.0,0.0));
#176=DIRECTION('',(0.0,0.0,1.0));
#177=AXIS2_PLACEMENT_3D('',#174,#175,#176);
#178=CIRCLE('',#177,6.000000000000001);
#179=EDGE_CURVE('',#173,#173,#178,.T.);
#180=ORIENTED_EDGE('',*,*,#179,.F.);
#181=EDGE_LOOP('',(#180));
#182=FACE_OUTER_BOUND('',#181,.T.);
#183=ADVANCED_FACE('',(#182),#171,.T.);
#184=CARTESIAN_POINT('',(26.0,-124.0,0.0));
#185=DIRECTION('',(0.0,1.0,0.0));
#186=DIRECTION('',(0.0,0.0,1.0));
#187=AXIS2_PLACEMENT_3D('',#184,#185,#186);
#188=CYLINDRICAL_SURFACE('',#187,6.000000000000004);
#189=CARTESIAN_POINT('',(26.0,-114.0,6.000000000000004));
#190=VERTEX_POINT('',#189);
#191=CARTESIAN_POINT('',(26.0,-114.0,0.0));
#192=DIRECTION('',(0.0,1.0,0.0));
#193=DIRECTION('',(0.0,0.0,1.0));
#194=AXIS2_PLACEMENT_3D('',#191,#192,#193);
#195=CIRCLE('',#194,6.000000000000004);
#196=EDGE_CURVE('',#190,#190,#195,.T.);
#197=ORIENTED_EDGE('',*,*,#196,.F.);
#198=EDGE_LOOP('',(#197));
#199=FACE_OUTER_BOUND('',#198,.T.);
#200=ORIENTED_EDGE('',*,*,#179,.T.);
#201=EDGE_LOOP('',(#200));
#202=FACE_BOUND('',#201,.T.);
#203=ADVANCED_FACE('',(#199,#202),#188,.T.);
#204=CARTESIAN_POINT('',(26.0,-114.0,11.500000000000004));
#205=DIRECTION('',(0.0,-1.0,0.0));
#206=DIRECTION('',(0.0,0.0,-1.0));
#207=AXIS2_PLACEMENT_3D('',#204,#205,#206);
#208=PLANE('',#207);
#209=ORIENTED_EDGE('',*,*,#114,.F.);
#210=EDGE_LOOP('',(#209));
#211=FACE_OUTER_BOUND('',#210,.T.);
#212=ORIENTED_EDGE('',*,*,#196,.T.);
#213=EDGE_LOOP('',(#212));
#214=FACE_BOUND('',#213,.T.);
#215=ADVANCED_FACE('',(#211,#214),#208,.T.);
#216=CARTESIAN_POINT('',(26.0,-4.999999999999996,31.500000000000021));
#217=DIRECTION('',(0.0,1.0,0.0));
#218=DIRECTION('',(0.0,0.0,1.0));
#219=AXIS2_PLACEMENT_3D('',#216,#217,#218);
#220=PLANE('',#219);
#221=CARTESIAN_POINT('',(54.0,-4.999999999999996,31.500000000000021));
#222=VERTEX_POINT('',#221);
#223=CARTESIAN_POINT('',(54.0,-5.0,27.500000000000014));
#224=VERTEX_POINT('',#223);
#225=CARTESIAN_POINT('',(54.0,-4.999999999999996,31.500000000000021));
#226=DIRECTION('',(0.0,0.0,-1.0));
#227=VECTOR('',#226,4.000000000000007);
#228=LINE('',#225,#227);
#229=EDGE_CURVE('',#222,#224,#228,.T.);
#230=ORIENTED_EDGE('',*,*,#229,.T.);
#231=CARTESIAN_POINT('',(-1.999999999999997,-5.0,27.500000000000014));
#232=VERTEX_POINT('',#231);
#233=CARTESIAN_POINT('',(-1.999999999999997,-5.0,27.500000000000014));
#234=DIRECTION('',(1.0,0.0,0.0));
#235=VECTOR('',#234,56.0);
#236=LINE('',#233,#235);
#237=EDGE_CURVE('',#232,#224,#236,.T.);
#238=ORIENTED_EDGE('',*,*,#237,.F.);
#239=CARTESIAN_POINT('',(-1.999999999999997,-4.999999999999996,31.500000000000021));
#240=VERTEX_POINT('',#239);
#241=CARTESIAN_POINT('',(-1.999999999999997,-5.0,27.500000000000014));
#242=DIRECTION('',(0.0,0.0,1.0));
#243=VECTOR('',#242,4.000000000000007);
#244=LINE('',#241,#243);
#245=EDGE_CURVE('',#232,#240,#244,.T.);
#246=ORIENTED_EDGE('',*,*,#245,.T.);
#247=CARTESIAN_POINT('',(54.0,-4.999999999999996,31.500000000000021));
#248=DIRECTION('',(-1.0,0.0,0.0));
#249=VECTOR('',#248,56.0);
#250=LINE('',#247,#249);
#251=EDGE_CURVE('',#222,#240,#250,.T.);
#252=ORIENTED_EDGE('',*,*,#251,.F.);
#253=EDGE_LOOP('',(#230,#238,#246,#252));
#254=FACE_OUTER_BOUND('',#253,.T.);
#255=ADVANCED_FACE('',(#254),#220,.T.);
#256=CARTESIAN_POINT('',(26.0,-5.0,27.500000000000014));
#257=DIRECTION('',(0.0,0.0,-1.0));
#258=DIRECTION('',(-1.0,0.0,0.0));
#259=AXIS2_PLACEMENT_3D('',#256,#257,#258);
#260=PLANE('',#259);
#261=CARTESIAN_POINT('',(-2.0,-27.500000000000000,27.500000000000000));
#262=VERTEX_POINT('',#261);
#263=CARTESIAN_POINT('',(54.0,-27.500000000000000,27.500000000000014));
#264=VERTEX_POINT('',#263);
#265=CARTESIAN_POINT('',(-2.0,-27.500000000000000,27.500000000000000));
#266=DIRECTION('',(1.0,0.0,0.0));
#267=VECTOR('',#266,56.0);
#268=LINE('',#265,#267);
#269=EDGE_CURVE('',#262,#264,#268,.T.);
#270=ORIENTED_EDGE('',*,*,#269,.T.);
#271=CARTESIAN_POINT('',(54.0,-45.0,27.500000000000014));
#272=VERTEX_POINT('',#271);
#273=CARTESIAN_POINT('',(54.0,-27.500000000000000,27.500000000000014));
#274=DIRECTION('',(0.0,-1.0,0.0));
#275=VECTOR('',#274,17.500000000000000);
#276=LINE('',#273,#275);
#277=EDGE_CURVE('',#264,#272,#276,.T.);
#278=ORIENTED_EDGE('',*,*,#277,.T.);
#279=CARTESIAN_POINT('',(-1.999999999999997,-45.0,27.500000000000014));
#280=VERTEX_POINT('',#279);
#281=CARTESIAN_POINT('',(-1.999999999999997,-45.0,27.500000000000014));
#282=DIRECTION('',(1.0,0.0,0.0));
#283=VECTOR('',#282,56.0);
#284=LINE('',#281,#283);
#285=EDGE_CURVE('',#280,#272,#284,.T.);
#286=ORIENTED_EDGE('',*,*,#285,.F.);
#287=CARTESIAN_POINT('',(-1.999999999999997,-45.0,27.500000000000014));
#288=DIRECTION('',(0.0,1.0,0.0));
#289=VECTOR('',#288,17.500000000000000);
#290=LINE('',#287,#289);
#291=EDGE_CURVE('',#280,#262,#290,.T.);
#292=ORIENTED_EDGE('',*,*,#291,.T.);
#293=EDGE_LOOP('',(#270,#278,#286,#292));
#294=FACE_OUTER_BOUND('',#293,.T.);
#295=ADVANCED_FACE('',(#294),#260,.T.);
#296=CARTESIAN_POINT('',(26.0,-45.0,27.500000000000014));
#297=DIRECTION('',(0.0,1.0,0.0));
#298=DIRECTION('',(0.0,0.0,1.0));
#299=AXIS2_PLACEMENT_3D('',#296,#297,#298);
#300=PLANE('',#299);
#301=CARTESIAN_POINT('',(54.0,-45.0,-28.499999999999993));
#302=VERTEX_POINT('',#301);
#303=CARTESIAN_POINT('',(54.0,-45.0,27.500000000000014));
#304=DIRECTION('',(0.0,0.0,-1.0));
#305=VECTOR('',#304,56.000000000000007);
#306=LINE('',#303,#305);
#307=EDGE_CURVE('',#272,#302,#306,.T.);
#308=ORIENTED_EDGE('',*,*,#307,.T.);
#309=CARTESIAN_POINT('',(-1.999999999999997,-45.0,-28.499999999999993));
#310=VERTEX_POINT('',#309);
#311=CARTESIAN_POINT('',(-1.999999999999997,-45.0,-28.499999999999993));
#312=DIRECTION('',(1.0,0.0,0.0));
#313=VECTOR('',#312,56.0);
#314=LINE('',#311,#313);
#315=EDGE_CURVE('',#310,#302,#314,.T.);
#316=ORIENTED_EDGE('',*,*,#315,.F.);
#317=CARTESIAN_POINT('',(-1.999999999999997,-45.0,-28.499999999999993));
#318=DIRECTION('',(0.0,0.0,1.0));
#319=VECTOR('',#318,56.000000000000007);
#320=LINE('',#317,#319);
#321=EDGE_CURVE('',#310,#280,#320,.T.);
#322=ORIENTED_EDGE('',*,*,#321,.T.);
#323=ORIENTED_EDGE('',*,*,#285,.T.);
#324=EDGE_LOOP('',(#308,#316,#322,#323));
#325=FACE_OUTER_BOUND('',#324,.T.);
#326=ORIENTED_EDGE('',*,*,#153,.T.);
#327=EDGE_LOOP('',(#326));
#328=FACE_BOUND('',#327,.T.);
#329=ADVANCED_FACE('',(#325,#328),#300,.T.);
#330=CARTESIAN_POINT('',(26.0,-45.0,-28.499999999999993));
#331=DIRECTION('',(0.0,0.0,-1.0));
#332=DIRECTION('',(-1.0,0.0,0.0));
#333=AXIS2_PLACEMENT_3D('',#330,#331,#332);
#334=PLANE('',#333);
#335=CARTESIAN_POINT('',(54.0,-69.0,-28.499999999999996));
#336=VERTEX_POINT('',#335);
#337=CARTESIAN_POINT('',(54.0,-45.0,-28.499999999999993));
#338=DIRECTION('',(0.0,-1.0,0.0));
#339=VECTOR('',#338,24.0);
#340=LINE('',#337,#339);
#341=EDGE_CURVE('',#302,#336,#340,.T.);
#342=ORIENTED_EDGE('',*,*,#341,.T.);
#343=CARTESIAN_POINT('',(-1.999999999999997,-69.0,-28.499999999999996));
#344=VERTEX_POINT('',#343);
#345=CARTESIAN_POINT('',(-1.999999999999997,-69.0,-28.499999999999996));
#346=DIRECTION('',(1.0,0.0,0.0));
#347=VECTOR('',#346,56.0);
#348=LINE('',#345,#347);
#349=EDGE_CURVE('',#344,#336,#348,.T.);
#350=ORIENTED_EDGE('',*,*,#349,.F.);
#351=CARTESIAN_POINT('',(-1.999999999999997,-69.0,-28.499999999999996));
#352=DIRECTION('',(0.0,1.0,0.0));
#353=VECTOR('',#352,24.0);
#354=LINE('',#351,#353);
#355=EDGE_CURVE('',#344,#310,#354,.T.);
#356=ORIENTED_EDGE('',*,*,#355,.T.);
#357=ORIENTED_EDGE('',*,*,#315,.T.);
#358=EDGE_LOOP('',(#342,#350,#356,#357));
#359=FACE_OUTER_BOUND('',#358,.T.);
#360=ADVANCED_FACE('',(#359),#334,.T.);
#361=CARTESIAN_POINT('',(26.0,-69.0,-28.499999999999996));
#362=DIRECTION('',(0.0,-1.0,0.0));
#363=DIRECTION('',(0.0,0.0,-1.0));
#364=AXIS2_PLACEMENT_3D('',#361,#362,#363);
#365=PLANE('',#364);
#366=CARTESIAN_POINT('',(54.0,-69.000000000000028,31.500000000000007));
#367=VERTEX_POINT('',#366);
#368=CARTESIAN_POINT('',(54.0,-69.0,-28.499999999999996));
#369=DIRECTION('',(0.0,0.0,1.0));
#370=VECTOR('',#369,60.0);
#371=LINE('',#368,#370);
#372=EDGE_CURVE('',#336,#367,#371,.T.);
#373=ORIENTED_EDGE('',*,*,#372,.T.);
#374=CARTESIAN_POINT('',(-1.999999999999997,-69.000000000000028,31.500000000000007));
#375=VERTEX_POINT('',#374);
#376=CARTESIAN_POINT('',(-1.999999999999997,-69.000000000000028,31.500000000000007));
#377=DIRECTION('',(1.0,0.0,0.0));
#378=VECTOR('',#377,56.0);
#379=LINE('',#376,#378);
#380=EDGE_CURVE('',#375,#367,#379,.T.);
#381=ORIENTED_EDGE('',*,*,#380,.F.);
#382=CARTESIAN_POINT('',(-1.999999999999997,-69.000000000000028,31.500000000000007));
#383=DIRECTION('',(0.0,0.0,-1.0));
#384=VECTOR('',#383,60.0);
#385=LINE('',#382,#384);
#386=EDGE_CURVE('',#375,#344,#385,.T.);
#387=ORIENTED_EDGE('',*,*,#386,.T.);
#388=ORIENTED_EDGE('',*,*,#349,.T.);
#389=EDGE_LOOP('',(#373,#381,#387,#388));
#390=FACE_OUTER_BOUND('',#389,.T.);
#391=ORIENTED_EDGE('',*,*,#125,.T.);
#392=EDGE_LOOP('',(#391));
#393=FACE_BOUND('',#392,.T.);
#394=ADVANCED_FACE('',(#390,#393),#365,.T.);
#395=CARTESIAN_POINT('',(26.0,-69.000000000000028,31.500000000000007));
#396=DIRECTION('',(0.0,0.0,1.0));
#397=DIRECTION('',(1.0,0.0,0.0));
#398=AXIS2_PLACEMENT_3D('',#395,#396,#397);
#399=PLANE('',#398);
#400=CARTESIAN_POINT('',(54.0,-69.000000000000028,31.500000000000007));
#401=DIRECTION('',(0.0,1.0,0.0));
#402=VECTOR('',#401,64.000000000000028);
#403=LINE('',#400,#402);
#404=EDGE_CURVE('',#367,#222,#403,.T.);
#405=ORIENTED_EDGE('',*,*,#404,.T.);
#406=ORIENTED_EDGE('',*,*,#251,.T.);
#407=CARTESIAN_POINT('',(-1.999999999999997,-4.999999999999996,31.500000000000021));
#408=DIRECTION('',(0.0,-1.0,0.0));
#409=VECTOR('',#408,64.000000000000028);
#410=LINE('',#407,#409);
#411=EDGE_CURVE('',#240,#375,#410,.T.);
#412=ORIENTED_EDGE('',*,*,#411,.T.);
#413=ORIENTED_EDGE('',*,*,#380,.T.);
#414=EDGE_LOOP('',(#405,#406,#412,#413));
#415=FACE_OUTER_BOUND('',#414,.T.);
#416=ADVANCED_FACE('',(#415),#399,.T.);
#417=CARTESIAN_POINT('',(54.0,-46.032258064516128,10.532258064516142));
#418=DIRECTION('',(1.0,0.0,0.0));
#419=DIRECTION('',(0.0,0.0,-1.0));
#420=AXIS2_PLACEMENT_3D('',#417,#418,#419);
#421=PLANE('',#420);
#422=ORIENTED_EDGE('',*,*,#229,.F.);
#423=ORIENTED_EDGE('',*,*,#404,.F.);
#424=ORIENTED_EDGE('',*,*,#372,.F.);
#425=ORIENTED_EDGE('',*,*,#341,.F.);
#426=ORIENTED_EDGE('',*,*,#307,.F.);
#427=ORIENTED_EDGE('',*,*,#277,.F.);
#428=CARTESIAN_POINT('',(54.0,-5.0,27.500000000000014));
#429=DIRECTION('',(0.0,-1.0,0.0));
#430=VECTOR('',#429,22.500000000000000);
#431=LINE('',#428,#430);
#432=EDGE_CURVE('',#224,#264,#431,.T.);
#433=ORIENTED_EDGE('',*,*,#432,.F.);
#434=EDGE_LOOP('',(#422,#423,#424,#425,#426,#427,#433));
#435=FACE_OUTER_BOUND('',#434,.T.);
#436=ADVANCED_FACE('',(#435),#421,.T.);
#437=CARTESIAN_POINT('',(-2.000000000000000,4.037175E-016,0.0));
#438=DIRECTION('',(1.0,0.0,0.0));
#439=DIRECTION('',(0.0,0.0,-1.0));
#440=AXIS2_PLACEMENT_3D('',#437,#438,#439);
#441=PLANE('',#440);
#442=CARTESIAN_POINT('',(-2.0,-27.500000000000000,-27.500000000000000));
#443=VERTEX_POINT('',#442);
#444=CARTESIAN_POINT('',(-2.0,-27.500000000000000,-27.500000000000000));
#445=DIRECTION('',(0.0,0.0,1.0));
#446=VECTOR('',#445,55.0);
#447=LINE('',#444,#446);
#448=EDGE_CURVE('',#443,#262,#447,.T.);
#449=ORIENTED_EDGE('',*,*,#448,.T.);
#450=ORIENTED_EDGE('',*,*,#291,.F.);
#451=ORIENTED_EDGE('',*,*,#321,.F.);
#452=ORIENTED_EDGE('',*,*,#355,.F.);
#453=ORIENTED_EDGE('',*,*,#386,.F.);
#454=ORIENTED_EDGE('',*,*,#411,.F.);
#455=ORIENTED_EDGE('',*,*,#245,.F.);
#456=CARTESIAN_POINT('',(-2.0,27.500000000000000,27.500000000000000));
#457=VERTEX_POINT('',#456);
#458=CARTESIAN_POINT('',(-1.999999999999997,-5.0,27.500000000000014));
#459=DIRECTION('',(0.0,1.0,0.0));
#460=VECTOR('',#459,32.500000000000000);
#461=LINE('',#458,#460);
#462=EDGE_CURVE('',#232,#457,#461,.T.);
#463=ORIENTED_EDGE('',*,*,#462,.T.);
#464=CARTESIAN_POINT('',(-2.0,27.500000000000004,-27.500000000000000));
#465=VERTEX_POINT('',#464);
#466=CARTESIAN_POINT('',(-2.0,27.500000000000000,27.500000000000000));
#467=DIRECTION('',(0.0,0.0,-1.0));
#468=VECTOR('',#467,55.0);
#469=LINE('',#466,#468);
#470=EDGE_CURVE('',#457,#465,#469,.T.);
#471=ORIENTED_EDGE('',*,*,#470,.T.);
#472=CARTESIAN_POINT('',(-2.0,27.500000000000004,-27.500000000000000));
#473=DIRECTION('',(0.0,-1.0,0.0));
#474=VECTOR('',#473,55.0);
#475=LINE('',#472,#474);
#476=EDGE_CURVE('',#465,#443,#475,.T.);
#477=ORIENTED_EDGE('',*,*,#476,.T.);
#478=EDGE_LOOP('',(#449,#450,#451,#452,#453,#454,#455,#463,#471,#477));
#479=FACE_OUTER_BOUND('',#478,.T.);
#480=CARTESIAN_POINT('',(-1.999999999999998,0.0,22.500000000000004));
#481=VERTEX_POINT('',#480);
#482=CARTESIAN_POINT('',(-1.999999999999998,0.0,0.0));
#483=DIRECTION('',(-1.0,0.0,0.0));
#484=DIRECTION('',(0.0,0.0,1.0));
#485=AXIS2_PLACEMENT_3D('',#482,#483,#484);
#486=CIRCLE('',#485,22.500000000000004);
#487=EDGE_CURVE('',#481,#481,#486,.T.);
#488=ORIENTED_EDGE('',*,*,#487,.F.);
#489=EDGE_LOOP('',(#488));
#490=FACE_BOUND('',#489,.T.);
#491=ADVANCED_FACE('',(#479,#490),#441,.F.);
#492=CARTESIAN_POINT('',(-2.0,-27.500000000000000,27.500000000000000));
#493=DIRECTION('',(0.0,0.0,1.0));
#494=DIRECTION('',(1.0,0.0,0.0));
#495=AXIS2_PLACEMENT_3D('',#492,#493,#494);
#496=PLANE('',#495);
#497=ORIENTED_EDGE('',*,*,#432,.T.);
#498=CARTESIAN_POINT('',(71.0,-27.500000000000000,27.500000000000000));
#499=VERTEX_POINT('',#498);
#500=CARTESIAN_POINT('',(54.0,-27.500000000000000,27.500000000000014));
#501=DIRECTION('',(1.0,0.0,0.0));
#502=VECTOR('',#501,17.0);
#503=LINE('',#500,#502);
#504=EDGE_CURVE('',#264,#499,#503,.T.);
#505=ORIENTED_EDGE('',*,*,#504,.T.);
#506=CARTESIAN_POINT('',(71.0,27.500000000000000,27.500000000000000));
#507=VERTEX_POINT('',#506);
#508=CARTESIAN_POINT('',(71.0,-27.500000000000000,27.500000000000000));
#509=DIRECTION('',(0.0,1.0,0.0));
#510=VECTOR('',#509,55.0);
#511=LINE('',#508,#510);
#512=EDGE_CURVE('',#499,#507,#511,.T.);
#513=ORIENTED_EDGE('',*,*,#512,.T.);
#514=CARTESIAN_POINT('',(-2.0,27.500000000000000,27.500000000000000));
#515=DIRECTION('',(1.0,0.0,0.0));
#516=VECTOR('',#515,73.0);
#517=LINE('',#514,#516);
#518=EDGE_CURVE('',#457,#507,#517,.T.);
#519=ORIENTED_EDGE('',*,*,#518,.F.);
#520=ORIENTED_EDGE('',*,*,#462,.F.);
#521=ORIENTED_EDGE('',*,*,#237,.T.);
#522=EDGE_LOOP('',(#497,#505,#513,#519,#520,#521));
#523=FACE_OUTER_BOUND('',#522,.T.);
#524=ADVANCED_FACE('',(#523),#496,.T.);
#525=CARTESIAN_POINT('',(-2.0,27.500000000000000,27.500000000000000));
#526=DIRECTION('',(0.0,1.0,0.0));
#527=DIRECTION('',(0.0,0.0,1.0));
#528=AXIS2_PLACEMENT_3D('',#525,#526,#527);
#529=PLANE('',#528);
#530=CARTESIAN_POINT('',(71.0,27.500000000000004,-27.500000000000000));
#531=VERTEX_POINT('',#530);
#532=CARTESIAN_POINT('',(71.0,27.500000000000000,27.500000000000000));
#533=DIRECTION('',(0.0,0.0,-1.0));
#534=VECTOR('',#533,55.0);
#535=LINE('',#532,#534);
#536=EDGE_CURVE('',#507,#531,#535,.T.);
#537=ORIENTED_EDGE('',*,*,#536,.T.);
#538=CARTESIAN_POINT('',(-2.0,27.500000000000004,-27.500000000000000));
#539=DIRECTION('',(1.0,0.0,0.0));
#540=VECTOR('',#539,73.0);
#541=LINE('',#538,#540);
#542=EDGE_CURVE('',#465,#531,#541,.T.);
#543=ORIENTED_EDGE('',*,*,#542,.F.);
#544=ORIENTED_EDGE('',*,*,#470,.F.);
#545=ORIENTED_EDGE('',*,*,#518,.T.);
#546=EDGE_LOOP('',(#537,#543,#544,#545));
#547=FACE_OUTER_BOUND('',#546,.T.);
#548=ADVANCED_FACE('',(#547),#529,.T.);
#549=CARTESIAN_POINT('',(-2.0,27.500000000000004,-27.500000000000000));
#550=DIRECTION('',(0.0,0.0,-1.0));
#551=DIRECTION('',(-1.0,0.0,0.0));
#552=AXIS2_PLACEMENT_3D('',#549,#550,#551);
#553=PLANE('',#552);
#554=CARTESIAN_POINT('',(71.0,-27.500000000000000,-27.500000000000000));
#555=VERTEX_POINT('',#554);
#556=CARTESIAN_POINT('',(71.0,27.500000000000004,-27.500000000000000));
#557=DIRECTION('',(0.0,-1.0,0.0));
#558=VECTOR('',#557,55.0);
#559=LINE('',#556,#558);
#560=EDGE_CURVE('',#531,#555,#559,.T.);
#561=ORIENTED_EDGE('',*,*,#560,.T.);
#562=CARTESIAN_POINT('',(-2.0,-27.500000000000000,-27.500000000000000));
#563=DIRECTION('',(1.0,0.0,0.0));
#564=VECTOR('',#563,73.0);
#565=LINE('',#562,#564);
#566=EDGE_CURVE('',#443,#555,#565,.T.);
#567=ORIENTED_EDGE('',*,*,#566,.F.);
#568=ORIENTED_EDGE('',*,*,#476,.F.);
#569=ORIENTED_EDGE('',*,*,#542,.T.);
#570=EDGE_LOOP('',(#561,#567,#568,#569));
#571=FACE_OUTER_BOUND('',#570,.T.);
#572=ADVANCED_FACE('',(#571),#553,.T.);
#573=CARTESIAN_POINT('',(-2.0,-27.500000000000000,-27.500000000000000));
#574=DIRECTION('',(0.0,-1.0,0.0));
#575=DIRECTION('',(0.0,0.0,-1.0));
#576=AXIS2_PLACEMENT_3D('',#573,#574,#575);
#577=PLANE('',#576);
#578=CARTESIAN_POINT('',(71.0,-27.500000000000000,-27.500000000000000));
#579=DIRECTION('',(0.0,0.0,1.0));
#580=VECTOR('',#579,55.0);
#581=LINE('',#578,#580);
#582=EDGE_CURVE('',#555,#499,#581,.T.);
#583=ORIENTED_EDGE('',*,*,#582,.T.);
#584=ORIENTED_EDGE('',*,*,#504,.F.);
#585=ORIENTED_EDGE('',*,*,#269,.F.);
#586=ORIENTED_EDGE('',*,*,#448,.F.);
#587=ORIENTED_EDGE('',*,*,#566,.T.);
#588=EDGE_LOOP('',(#583,#584,#585,#586,#587));
#589=FACE_OUTER_BOUND('',#588,.T.);
#590=ADVANCED_FACE('',(#589),#577,.T.);
#591=CARTESIAN_POINT('',(71.0,4.037175E-016,0.0));
#592=DIRECTION('',(1.0,0.0,0.0));
#593=DIRECTION('',(0.0,0.0,-1.0));
#594=AXIS2_PLACEMENT_3D('',#591,#592,#593);
#595=PLANE('',#594);
#596=ORIENTED_EDGE('',*,*,#512,.F.);
#597=ORIENTED_EDGE('',*,*,#582,.F.);
#598=ORIENTED_EDGE('',*,*,#560,.F.);
#599=ORIENTED_EDGE('',*,*,#536,.F.);
#600=EDGE_LOOP('',(#596,#597,#598,#599));
#601=FACE_OUTER_BOUND('',#600,.T.);
#602=ORIENTED_EDGE('',*,*,#77,.T.);
#603=EDGE_LOOP('',(#602));
#604=FACE_BOUND('',#603,.T.);
#605=ADVANCED_FACE('',(#601,#604),#595,.T.);
#606=CARTESIAN_POINT('',(-6.500000000000002,0.0,0.0));
#607=DIRECTION('',(-1.0,0.0,0.0));
#608=DIRECTION('',(0.0,0.0,1.0));
#609=AXIS2_PLACEMENT_3D('',#606,#607,#608);
#610=CYLINDRICAL_SURFACE('',#609,22.500000000000000);
#611=CARTESIAN_POINT('',(-11.000000000000004,0.0,22.500000000000000));
#612=VERTEX_POINT('',#611);
#613=CARTESIAN_POINT('',(-11.000000000000004,0.0,0.0));
#614=DIRECTION('',(-1.0,0.0,0.0));
#615=DIRECTION('',(0.0,0.0,1.0));
#616=AXIS2_PLACEMENT_3D('',#613,#614,#615);
#617=CIRCLE('',#616,22.500000000000000);
#618=EDGE_CURVE('',#612,#612,#617,.T.);
#619=ORIENTED_EDGE('',*,*,#618,.F.);
#620=EDGE_LOOP('',(#619));
#621=FACE_OUTER_BOUND('',#620,.T.);
#622=ORIENTED_EDGE('',*,*,#487,.T.);
#623=EDGE_LOOP('',(#622));
#624=FACE_BOUND('',#623,.T.);
#625=ADVANCED_FACE('',(#621,#624),#610,.T.);
#626=CARTESIAN_POINT('',(-11.000000000000004,0.0,25.0));
#627=DIRECTION('',(1.0,0.0,0.0));
#628=DIRECTION('',(0.0,0.0,-1.0));
#629=AXIS2_PLACEMENT_3D('',#626,#627,#628);
#630=PLANE('',#629);
#631=CARTESIAN_POINT('',(-11.000000000000004,0.0,27.500000000000000));
#632=VERTEX_POINT('',#631);
#633=CARTESIAN_POINT('',(-11.000000000000004,0.0,0.0));
#634=DIRECTION('',(-1.0,0.0,0.0));
#635=DIRECTION('',(0.0,0.0,1.0));
#636=AXIS2_PLACEMENT_3D('',#633,#634,#635);
#637=CIRCLE('',#636,27.500000000000000);
#638=EDGE_CURVE('',#632,#632,#637,.T.);
#639=ORIENTED_EDGE('',*,*,#638,.F.);
#640=EDGE_LOOP('',(#639));
#641=FACE_OUTER_BOUND('',#640,.T.);
#642=ORIENTED_EDGE('',*,*,#618,.T.);
#643=EDGE_LOOP('',(#642));
#644=FACE_BOUND('',#643,.T.);
#645=ADVANCED_FACE('',(#641,#644),#630,.T.);
#646=CARTESIAN_POINT('',(-12.500000000000004,0.0,0.0));
#647=DIRECTION('',(-1.0,0.0,0.0));
#648=DIRECTION('',(0.0,0.0,1.0));
#649=AXIS2_PLACEMENT_3D('',#646,#647,#648);
#650=CYLINDRICAL_SURFACE('',#649,27.500000000000000);
#651=CARTESIAN_POINT('',(-14.000000000000004,0.0,27.500000000000000));
#652=VERTEX_POINT('',#651);
#653=CARTESIAN_POINT('',(-14.000000000000004,0.0,0.0));
#654=DIRECTION('',(-1.0,0.0,0.0));
#655=DIRECTION('',(0.0,0.0,1.0));
#656=AXIS2_PLACEMENT_3D('',#653,#654,#655);
#657=CIRCLE('',#656,27.500000000000000);
#658=EDGE_CURVE('',#652,#652,#657,.T.);
#659=ORIENTED_EDGE('',*,*,#658,.F.);
#660=EDGE_LOOP('',(#659));
#661=FACE_OUTER_BOUND('',#660,.T.);
#662=ORIENTED_EDGE('',*,*,#638,.T.);
#663=EDGE_LOOP('',(#662));
#664=FACE_BOUND('',#663,.T.);
#665=ADVANCED_FACE('',(#661,#664),#650,.T.);
#666=CARTESIAN_POINT('',(-14.000000000000004,0.0,13.750000000000000));
#667=DIRECTION('',(-1.0,0.0,0.0));
#668=DIRECTION('',(0.0,0.0,1.0));
#669=AXIS2_PLACEMENT_3D('',#666,#667,#668);
#670=PLANE('',#669);
#671=ORIENTED_EDGE('',*,*,#658,.T.);
#672=EDGE_LOOP('',(#671));
#673=FACE_OUTER_BOUND('',#672,.T.);
#674=ADVANCED_FACE('',(#673),#670,.T.);
#675=CLOSED_SHELL('',(#92,#101,#129,#157,#166,#183,#203,#215,#255,#295,#329,#360,#394,#416,#436,#491,#524,#548,#572,#590,#605,#625,#645,#665,#674));
#676=MANIFOLD_SOLID_BREP('',#675);
#677=DRAUGHTING_PRE_DEFINED_COLOUR('white');
#678=FILL_AREA_STYLE_COLOUR('ACAD-Standard',#677);
#679=FILL_AREA_STYLE('ACAD-Standard',(#678));
#680=SURFACE_STYLE_FILL_AREA(#679);
#681=SURFACE_SIDE_STYLE('ACAD-Standard',(#680));
#682=SURFACE_STYLE_USAGE(.BOTH.,#681);
#683=PRESENTATION_STYLE_ASSIGNMENT((#682));
#684=STYLED_ITEM('',(#683),#676);
#685=MECHANICAL_DESIGN_GEOMETRIC_PRESENTATION_REPRESENTATION('',(#684),#36);
#686=ADVANCED_BREP_SHAPE_REPRESENTATION('ABSR',(#676),#36);
#687=SHAPE_REPRESENTATION_RELATIONSHIP('SRR','None',#686,#41);
ENDSEC;
END-ISO-10303-21;
