ISO-10303-21;
HEADER;
FILE_DESCRIPTION (( 'STEP AP214' ),
    '1' );
FILE_NAME ('490DFL160-S5.stp',
    '2017-10-11T11:05:19',
    ( '' ),
    ( '' ),
    'SwSTEP 2.0',
    'SolidWorks 2015',
    '' );
FILE_SCHEMA (( 'AUTOMOTIVE_DESIGN' ));
ENDSEC;

DATA;
#1 = AXIS2_PLACEMENT_3D ( 'NONE', #171, #109, #33 ) ;
#2 = UNCERTAINTY_MEASURE_WITH_UNIT (LENGTH_MEASURE( 1.000000000000000100E-005 ), #19, 'distance_accuracy_value', 'NONE');
#3 = SURFACE_STYLE_USAGE ( .BOTH. , #158 ) ;
#4 = EDGE_CURVE ( 'NONE', #147, #53, #190, .T. ) ;
#5 = ORIENTED_EDGE ( 'NONE', *, *, #24, .F. ) ;
#6 = FACE_OUTER_BOUND ( 'NONE', #99, .T. ) ;
#7 = DIRECTION ( 'NONE',  ( 1.000000000000000000, 0.0000000000000000000, 0.0000000000000000000 ) ) ;
#8 = CARTESIAN_POINT ( 'NONE',  ( -76.20000000000000300, 9.331808609502832200E-015, 0.0000000000000000000 ) ) ;
#9 = FACE_OUTER_BOUND ( 'NONE', #194, .T. ) ;
#10 = EDGE_CURVE ( 'NONE', #35, #151, #102, .T. ) ;
#11 = VECTOR ( 'NONE', #122, 1000.000000000000000 ) ;
#12 = CIRCLE ( 'NONE', #47, 76.20000000000000300 ) ;
#13 = DIRECTION ( 'NONE',  ( 0.0000000000000000000, 0.0000000000000000000, 1.000000000000000000 ) ) ;
#14 = PLANE ( 'NONE',  #38 ) ;
#15 = FACE_BOUND ( 'NONE', #108, .T. ) ;
#16 = STYLED_ITEM ( 'NONE', ( #105 ), #152 ) ;
#17 = FILL_AREA_STYLE ('',( #112 ) ) ;
#18 =( NAMED_UNIT ( * ) SI_UNIT ( $, .STERADIAN. ) SOLID_ANGLE_UNIT ( ) );
#19 =( LENGTH_UNIT ( ) NAMED_UNIT ( * ) SI_UNIT ( .MILLI., .METRE. ) );
#20 = EDGE_CURVE ( 'NONE', #86, #131, #28, .T. ) ;
#21 = DIRECTION ( 'NONE',  ( 0.0000000000000000000, 0.0000000000000000000, 1.000000000000000000 ) ) ;
#22 = CARTESIAN_POINT ( 'NONE',  ( 0.0000000000000000000, 0.0000000000000000000, -2.000000000000000000 ) ) ;
#23 = PRESENTATION_LAYER_ASSIGNMENT (  '', '', ( #74 ) ) ;
#24 = EDGE_CURVE ( 'NONE', #151, #35, #58, .T. ) ;
#25 = CARTESIAN_POINT ( 'NONE',  ( -85.62500000000000000, 1.048603821769921300E-014, -2.000000000000000000 ) ) ;
#26 = DIRECTION ( 'NONE',  ( 1.000000000000000000, 0.0000000000000000000, 0.0000000000000000000 ) ) ;
#27 = LINE ( 'NONE', #25, #166 ) ;
#28 = CIRCLE ( 'NONE', #110, 76.20000000000000300 ) ;
#29 =( LENGTH_UNIT ( ) NAMED_UNIT ( * ) SI_UNIT ( .MILLI., .METRE. ) );
#30 = ORIENTED_EDGE ( 'NONE', *, *, #208, .F. ) ;
#31 = CARTESIAN_POINT ( 'NONE',  ( 0.0000000000000000000, 0.0000000000000000000, 0.0000000000000000000 ) ) ;
#32 = DIRECTION ( 'NONE',  ( 0.0000000000000000000, 0.0000000000000000000, 1.000000000000000000 ) ) ;
#33 = DIRECTION ( 'NONE',  ( 1.000000000000000000, 0.0000000000000000000, 0.0000000000000000000 ) ) ;
#34 = ORIENTED_EDGE ( 'NONE', *, *, #175, .F. ) ;
#35 = VERTEX_POINT ( 'NONE', #41 ) ;
#36 = CYLINDRICAL_SURFACE ( 'NONE', #153, 76.20000000000000300 ) ;
#37 = LINE ( 'NONE', #104, #11 ) ;
#38 = AXIS2_PLACEMENT_3D ( 'NONE', #199, #88, #81 ) ;
#39 = ORIENTED_EDGE ( 'NONE', *, *, #10, .T. ) ;
#40 = CARTESIAN_POINT ( 'NONE',  ( 0.0000000000000000000, 0.0000000000000000000, 0.0000000000000000000 ) ) ;
#41 = CARTESIAN_POINT ( 'NONE',  ( 85.62500000000000000, 0.0000000000000000000, -2.000000000000000000 ) ) ;
#42 = CARTESIAN_POINT ( 'NONE',  ( 85.62500000000000000, 0.0000000000000000000, -2.000000000000000000 ) ) ;
#43 = DIRECTION ( 'NONE',  ( 0.0000000000000000000, 0.0000000000000000000, 1.000000000000000000 ) ) ;
#44 = ORIENTED_EDGE ( 'NONE', *, *, #206, .F. ) ;
#45 = ORIENTED_EDGE ( 'NONE', *, *, #20, .T. ) ;
#46 = ADVANCED_FACE ( 'NONE', ( #15, #111 ), #119, .T. ) ;
#47 = AXIS2_PLACEMENT_3D ( 'NONE', #66, #183, #64 ) ;
#48 = VECTOR ( 'NONE', #67, 1000.000000000000000 ) ;
#49 = SURFACE_STYLE_FILL_AREA ( #17 ) ;
#50 = DIRECTION ( 'NONE',  ( 1.000000000000000000, 0.0000000000000000000, 0.0000000000000000000 ) ) ;
#51 = SURFACE_SIDE_STYLE ('',( #94 ) ) ;
#52 = PRESENTATION_LAYER_ASSIGNMENT (  '', '', ( #16 ) ) ;
#53 = VERTEX_POINT ( 'NONE', #8 ) ;
#54 = EDGE_LOOP ( 'NONE', ( #170, #45 ) ) ;
#55 = DIRECTION ( 'NONE',  ( 1.000000000000000000, 0.0000000000000000000, 0.0000000000000000000 ) ) ;
#56 = CARTESIAN_POINT ( 'NONE',  ( 0.0000000000000000000, 0.0000000000000000000, -2.000000000000000000 ) ) ;
#57 = EDGE_CURVE ( 'NONE', #86, #53, #37, .T. ) ;
#58 = CIRCLE ( 'NONE', #87, 85.62500000000000000 ) ;
#59 = DIRECTION ( 'NONE',  ( 0.0000000000000000000, 0.0000000000000000000, 1.000000000000000000 ) ) ;
#60 = DIRECTION ( 'NONE',  ( 0.0000000000000000000, 0.0000000000000000000, 1.000000000000000000 ) ) ;
#61 = DIRECTION ( 'NONE',  ( 0.0000000000000000000, 0.0000000000000000000, 1.000000000000000000 ) ) ;
#62 =( GEOMETRIC_REPRESENTATION_CONTEXT ( 3 ) GLOBAL_UNCERTAINTY_ASSIGNED_CONTEXT ( ( #2 ) ) GLOBAL_UNIT_ASSIGNED_CONTEXT ( ( #19, #93, #159 ) ) REPRESENTATION_CONTEXT ( 'NONE', 'WORKASPACE' ) );
#63 = ORIENTED_EDGE ( 'NONE', *, *, #73, .F. ) ;
#64 = DIRECTION ( 'NONE',  ( 1.000000000000000000, 0.0000000000000000000, 0.0000000000000000000 ) ) ;
#65 = ORIENTED_EDGE ( 'NONE', *, *, #20, .F. ) ;
#66 = CARTESIAN_POINT ( 'NONE',  ( 0.0000000000000000000, 0.0000000000000000000, -2.000000000000000000 ) ) ;
#67 = DIRECTION ( 'NONE',  ( 0.0000000000000000000, 0.0000000000000000000, 1.000000000000000000 ) ) ;
#68 = CARTESIAN_POINT ( 'NONE',  ( 0.0000000000000000000, 0.0000000000000000000, 0.0000000000000000000 ) ) ;
#69 = CARTESIAN_POINT ( 'NONE',  ( 0.0000000000000000000, 0.0000000000000000000, -2.000000000000000000 ) ) ;
#70 = EDGE_LOOP ( 'NONE', ( #65, #123, #115, #78 ) ) ;
#71 = DIRECTION ( 'NONE',  ( 1.000000000000000000, 0.0000000000000000000, 0.0000000000000000000 ) ) ;
#72 = ORIENTED_EDGE ( 'NONE', *, *, #208, .T. ) ;
#73 = EDGE_CURVE ( 'NONE', #131, #86, #12, .T. ) ;
#74 = STYLED_ITEM ( 'NONE', ( #126 ), #160 ) ;
#75 = EDGE_CURVE ( 'NONE', #124, #145, #184, .T. ) ;
#76 = EDGE_LOOP ( 'NONE', ( #39, #138, #30, #204 ) ) ;
#77 = DIRECTION ( 'NONE',  ( 1.000000000000000000, 0.0000000000000000000, 0.0000000000000000000 ) ) ;
#78 = ORIENTED_EDGE ( 'NONE', *, *, #185, .F. ) ;
#79 = DIRECTION ( 'NONE',  ( 0.0000000000000000000, 0.0000000000000000000, 1.000000000000000000 ) ) ;
#80 = PRODUCT_DEFINITION ( 'UNKNOWN', '', #187, #181 ) ;
#81 = DIRECTION ( 'NONE',  ( 1.000000000000000000, 0.0000000000000000000, -0.0000000000000000000 ) ) ;
#82 = SHAPE_DEFINITION_REPRESENTATION ( #167, #160 ) ;
#83 = EDGE_LOOP ( 'NONE', ( #72, #95 ) ) ;
#84 = CARTESIAN_POINT ( 'NONE',  ( 0.0000000000000000000, 0.0000000000000000000, -2.000000000000000000 ) ) ;
#85 = ORIENTED_EDGE ( 'NONE', *, *, #10, .F. ) ;
#86 = VERTEX_POINT ( 'NONE', #116 ) ;
#87 = AXIS2_PLACEMENT_3D ( 'NONE', #135, #136, #207 ) ;
#88 = DIRECTION ( 'NONE',  ( 0.0000000000000000000, 0.0000000000000000000, 1.000000000000000000 ) ) ;
#89 = ORIENTED_EDGE ( 'NONE', *, *, #24, .T. ) ;
#90 = AXIS2_PLACEMENT_3D ( 'NONE', #69, #61, #77 ) ;
#91 = CLOSED_SHELL ( 'NONE', ( #169, #157, #165, #202, #46, #146 ) ) ;
#92 = ORIENTED_EDGE ( 'NONE', *, *, #4, .T. ) ;
#93 =( NAMED_UNIT ( * ) PLANE_ANGLE_UNIT ( ) SI_UNIT ( $, .RADIAN. ) );
#94 = SURFACE_STYLE_FILL_AREA ( #211 ) ;
#95 = ORIENTED_EDGE ( 'NONE', *, *, #75, .T. ) ;
#96 = DIRECTION ( 'NONE',  ( 0.0000000000000000000, 0.0000000000000000000, 1.000000000000000000 ) ) ;
#97 = COLOUR_RGB ( '',0.7254901960784313500, 0.4470588235294117300, 0.3686274509803921800 ) ;
#98 = CARTESIAN_POINT ( 'NONE',  ( 0.0000000000000000000, 0.0000000000000000000, 0.0000000000000000000 ) ) ;
#99 = EDGE_LOOP ( 'NONE', ( #130, #63, #142, #92 ) ) ;
#100 = DIRECTION ( 'NONE',  ( 1.000000000000000000, 0.0000000000000000000, -0.0000000000000000000 ) ) ;
#101 = AXIS2_PLACEMENT_3D ( 'NONE', #106, #79, #7 ) ;
#102 = CIRCLE ( 'NONE', #148, 85.62500000000000000 ) ;
#103 = EDGE_CURVE ( 'NONE', #35, #145, #186, .T. ) ;
#104 = CARTESIAN_POINT ( 'NONE',  ( -76.20000000000000300, 9.331808609502832200E-015, -2.000000000000000000 ) ) ;
#105 = PRESENTATION_STYLE_ASSIGNMENT (( #179 ) ) ;
#106 = CARTESIAN_POINT ( 'NONE',  ( 0.0000000000000000000, 0.0000000000000000000, -2.000000000000000000 ) ) ;
#107 =( NAMED_UNIT ( * ) SI_UNIT ( $, .STERADIAN. ) SOLID_ANGLE_UNIT ( ) );
#108 = EDGE_LOOP ( 'NONE', ( #143, #44 ) ) ;
#109 = DIRECTION ( 'NONE',  ( 0.0000000000000000000, 0.0000000000000000000, 1.000000000000000000 ) ) ;
#110 = AXIS2_PLACEMENT_3D ( 'NONE', #22, #21, #26 ) ;
#111 = FACE_OUTER_BOUND ( 'NONE', #83, .T. ) ;
#112 = FILL_AREA_STYLE_COLOUR ( '', #97 ) ;
#113 = APPLICATION_PROTOCOL_DEFINITION ( 'draft international standard', 'automotive_design', 1998, #214 ) ;
#114 = AXIS2_PLACEMENT_3D ( 'NONE', #173, #96, #55 ) ;
#115 = ORIENTED_EDGE ( 'NONE', *, *, #206, .T. ) ;
#116 = CARTESIAN_POINT ( 'NONE',  ( -76.20000000000000300, 9.331808609502832200E-015, -2.000000000000000000 ) ) ;
#117 = AXIS2_PLACEMENT_3D ( 'NONE', #84, #161, #164 ) ;
#118 = DIRECTION ( 'NONE',  ( 1.000000000000000000, 0.0000000000000000000, 0.0000000000000000000 ) ) ;
#119 = PLANE ( 'NONE',  #193 ) ;
#120 = ORIENTED_EDGE ( 'NONE', *, *, #103, .T. ) ;
#121 = UNCERTAINTY_MEASURE_WITH_UNIT (LENGTH_MEASURE( 1.000000000000000100E-005 ), #155, 'distance_accuracy_value', 'NONE');
#122 = DIRECTION ( 'NONE',  ( 0.0000000000000000000, 0.0000000000000000000, 1.000000000000000000 ) ) ;
#123 = ORIENTED_EDGE ( 'NONE', *, *, #57, .T. ) ;
#124 = VERTEX_POINT ( 'NONE', #133 ) ;
#125 = APPLICATION_CONTEXT ( 'automotive_design' ) ;
#126 = PRESENTATION_STYLE_ASSIGNMENT (( #3 ) ) ;
#127 = APPLICATION_PROTOCOL_DEFINITION ( 'draft international standard', 'automotive_design', 1998, #125 ) ;
#128 =( GEOMETRIC_REPRESENTATION_CONTEXT ( 3 ) GLOBAL_UNCERTAINTY_ASSIGNED_CONTEXT ( ( #121 ) ) GLOBAL_UNIT_ASSIGNED_CONTEXT ( ( #155, #156, #18 ) ) REPRESENTATION_CONTEXT ( 'NONE', 'WORKASPACE' ) );
#129 = AXIS2_PLACEMENT_3D ( 'NONE', #40, #43, #50 ) ;
#130 = ORIENTED_EDGE ( 'NONE', *, *, #57, .F. ) ;
#131 = VERTEX_POINT ( 'NONE', #139 ) ;
#132 = ORIENTED_EDGE ( 'NONE', *, *, #75, .F. ) ;
#133 = CARTESIAN_POINT ( 'NONE',  ( -85.62500000000000000, 1.048603821769921300E-014, 0.0000000000000000000 ) ) ;
#134 = EDGE_LOOP ( 'NONE', ( #34, #89, #120, #132 ) ) ;
#135 = CARTESIAN_POINT ( 'NONE',  ( 0.0000000000000000000, 0.0000000000000000000, -2.000000000000000000 ) ) ;
#136 = DIRECTION ( 'NONE',  ( 0.0000000000000000000, 0.0000000000000000000, 1.000000000000000000 ) ) ;
#137 = MECHANICAL_DESIGN_GEOMETRIC_PRESENTATION_REPRESENTATION (  '', ( #74 ), #62 ) ;
#138 = ORIENTED_EDGE ( 'NONE', *, *, #175, .T. ) ;
#139 = CARTESIAN_POINT ( 'NONE',  ( 76.20000000000000300, 0.0000000000000000000, -2.000000000000000000 ) ) ;
#140 = PRODUCT_CONTEXT ( 'NONE', #125, 'mechanical' ) ;
#141 = DIRECTION ( 'NONE',  ( 1.000000000000000000, 0.0000000000000000000, 0.0000000000000000000 ) ) ;
#142 = ORIENTED_EDGE ( 'NONE', *, *, #185, .T. ) ;
#143 = ORIENTED_EDGE ( 'NONE', *, *, #4, .F. ) ;
#144 = COLOUR_RGB ( '',0.7254901960784313500, 0.4470588235294117300, 0.3686274509803921800 ) ;
#145 = VERTEX_POINT ( 'NONE', #149 ) ;
#146 = ADVANCED_FACE ( 'NONE', ( #6 ), #36, .F. ) ;
#147 = VERTEX_POINT ( 'NONE', #176 ) ;
#148 = AXIS2_PLACEMENT_3D ( 'NONE', #56, #162, #118 ) ;
#149 = CARTESIAN_POINT ( 'NONE',  ( 85.62500000000000000, 0.0000000000000000000, 0.0000000000000000000 ) ) ;
#150 = CARTESIAN_POINT ( 'NONE',  ( 0.0000000000000000000, 0.0000000000000000000, -2.000000000000000000 ) ) ;
#151 = VERTEX_POINT ( 'NONE', #191 ) ;
#152 = MANIFOLD_SOLID_BREP ( 'Aufsatz-Linear austragen1', #91 ) ;
#153 = AXIS2_PLACEMENT_3D ( 'NONE', #150, #59, #141 ) ;
#154 = AXIS2_PLACEMENT_3D ( 'NONE', #98, #168, #163 ) ;
#155 =( LENGTH_UNIT ( ) NAMED_UNIT ( * ) SI_UNIT ( .MILLI., .METRE. ) );
#156 =( NAMED_UNIT ( * ) PLANE_ANGLE_UNIT ( ) SI_UNIT ( $, .RADIAN. ) );
#157 = ADVANCED_FACE ( 'NONE', ( #200 ), #209, .T. ) ;
#158 = SURFACE_SIDE_STYLE ('',( #49 ) ) ;
#159 =( NAMED_UNIT ( * ) SI_UNIT ( $, .STERADIAN. ) SOLID_ANGLE_UNIT ( ) );
#160 = ADVANCED_BREP_SHAPE_REPRESENTATION ( '490DFL160-S5', ( #152, #1 ), #128 ) ;
#161 = DIRECTION ( 'NONE',  ( 0.0000000000000000000, 0.0000000000000000000, 1.000000000000000000 ) ) ;
#162 = DIRECTION ( 'NONE',  ( 0.0000000000000000000, 0.0000000000000000000, 1.000000000000000000 ) ) ;
#163 = DIRECTION ( 'NONE',  ( 1.000000000000000000, 0.0000000000000000000, 0.0000000000000000000 ) ) ;
#164 = DIRECTION ( 'NONE',  ( 1.000000000000000000, 0.0000000000000000000, 0.0000000000000000000 ) ) ;
#165 = ADVANCED_FACE ( 'NONE', ( #210 ), #172, .T. ) ;
#166 = VECTOR ( 'NONE', #60, 1000.000000000000000 ) ;
#167 = PRODUCT_DEFINITION_SHAPE ( 'NONE', 'NONE',  #80 ) ;
#168 = DIRECTION ( 'NONE',  ( 0.0000000000000000000, 0.0000000000000000000, 1.000000000000000000 ) ) ;
#169 = ADVANCED_FACE ( 'NONE', ( #213 ), #174, .F. ) ;
#170 = ORIENTED_EDGE ( 'NONE', *, *, #73, .T. ) ;
#171 = CARTESIAN_POINT ( 'NONE',  ( 0.0000000000000000000, 0.0000000000000000000, 0.0000000000000000000 ) ) ;
#172 = CYLINDRICAL_SURFACE ( 'NONE', #117, 85.62500000000000000 ) ;
#173 = CARTESIAN_POINT ( 'NONE',  ( 0.0000000000000000000, 0.0000000000000000000, 0.0000000000000000000 ) ) ;
#174 = CYLINDRICAL_SURFACE ( 'NONE', #90, 76.20000000000000300 ) ;
#175 = EDGE_CURVE ( 'NONE', #151, #124, #27, .T. ) ;
#176 = CARTESIAN_POINT ( 'NONE',  ( 76.20000000000000300, 0.0000000000000000000, 0.0000000000000000000 ) ) ;
#177 = LINE ( 'NONE', #197, #189 ) ;
#178 = PRODUCT ( '490DFL160-S5', '490DFL160-S5', '', ( #140 ) ) ;
#179 = SURFACE_STYLE_USAGE ( .BOTH. , #51 ) ;
#180 = DIRECTION ( 'NONE',  ( 0.0000000000000000000, 0.0000000000000000000, 1.000000000000000000 ) ) ;
#181 = PRODUCT_DEFINITION_CONTEXT ( 'detailed design', #214, 'design' ) ;
#182 =( NAMED_UNIT ( * ) PLANE_ANGLE_UNIT ( ) SI_UNIT ( $, .RADIAN. ) );
#183 = DIRECTION ( 'NONE',  ( 0.0000000000000000000, 0.0000000000000000000, 1.000000000000000000 ) ) ;
#184 = CIRCLE ( 'NONE', #129, 85.62500000000000000 ) ;
#185 = EDGE_CURVE ( 'NONE', #131, #147, #177, .T. ) ;
#186 = LINE ( 'NONE', #42, #48 ) ;
#187 = PRODUCT_DEFINITION_FORMATION_WITH_SPECIFIED_SOURCE ( 'ANY', '', #178, .NOT_KNOWN. ) ;
#188 = UNCERTAINTY_MEASURE_WITH_UNIT (LENGTH_MEASURE( 1.000000000000000100E-005 ), #29, 'distance_accuracy_value', 'NONE');
#189 = VECTOR ( 'NONE', #13, 1000.000000000000000 ) ;
#190 = CIRCLE ( 'NONE', #154, 76.20000000000000300 ) ;
#191 = CARTESIAN_POINT ( 'NONE',  ( -85.62500000000000000, 1.048603821769921300E-014, -2.000000000000000000 ) ) ;
#192 = MECHANICAL_DESIGN_GEOMETRIC_PRESENTATION_REPRESENTATION (  '', ( #16 ), #212 ) ;
#193 = AXIS2_PLACEMENT_3D ( 'NONE', #31, #180, #100 ) ;
#194 = EDGE_LOOP ( 'NONE', ( #85, #5 ) ) ;
#195 = FILL_AREA_STYLE_COLOUR ( '', #144 ) ;
#196 = PRODUCT_RELATED_PRODUCT_CATEGORY ( 'part', '', ( #178 ) ) ;
#197 = CARTESIAN_POINT ( 'NONE',  ( 76.20000000000000300, 0.0000000000000000000, -2.000000000000000000 ) ) ;
#198 = CIRCLE ( 'NONE', #114, 76.20000000000000300 ) ;
#199 = CARTESIAN_POINT ( 'NONE',  ( 0.0000000000000000000, 0.0000000000000000000, -2.000000000000000000 ) ) ;
#200 = FACE_OUTER_BOUND ( 'NONE', #76, .T. ) ;
#201 = CIRCLE ( 'NONE', #203, 85.62500000000000000 ) ;
#202 = ADVANCED_FACE ( 'NONE', ( #205, #9 ), #14, .F. ) ;
#203 = AXIS2_PLACEMENT_3D ( 'NONE', #68, #32, #71 ) ;
#204 = ORIENTED_EDGE ( 'NONE', *, *, #103, .F. ) ;
#205 = FACE_BOUND ( 'NONE', #54, .T. ) ;
#206 = EDGE_CURVE ( 'NONE', #53, #147, #198, .T. ) ;
#207 = DIRECTION ( 'NONE',  ( 1.000000000000000000, 0.0000000000000000000, 0.0000000000000000000 ) ) ;
#208 = EDGE_CURVE ( 'NONE', #145, #124, #201, .T. ) ;
#209 = CYLINDRICAL_SURFACE ( 'NONE', #101, 85.62500000000000000 ) ;
#210 = FACE_OUTER_BOUND ( 'NONE', #134, .T. ) ;
#211 = FILL_AREA_STYLE ('',( #195 ) ) ;
#212 =( GEOMETRIC_REPRESENTATION_CONTEXT ( 3 ) GLOBAL_UNCERTAINTY_ASSIGNED_CONTEXT ( ( #188 ) ) GLOBAL_UNIT_ASSIGNED_CONTEXT ( ( #29, #182, #107 ) ) REPRESENTATION_CONTEXT ( 'NONE', 'WORKASPACE' ) );
#213 = FACE_OUTER_BOUND ( 'NONE', #70, .T. ) ;
#214 = APPLICATION_CONTEXT ( 'automotive_design' ) ;
ENDSEC;
END-ISO-10303-21;
