ISO-10303-21;
HEADER;
FILE_DESCRIPTION (( 'STEP AP214' ),
    '1' );
FILE_NAME ('302DOR500-S1.step',
    '2017-07-07T05:03:44',
    ( 'install' ),
    ( '' ),
    'SwSTEP 2.0',
    'SolidWorks 2015',
    '' );
FILE_SCHEMA (( 'AUTOMOTIVE_DESIGN' ));
ENDSEC;

DATA;
#1 =( NAMED_UNIT ( * ) PLANE_ANGLE_UNIT ( ) SI_UNIT ( $, .RADIAN. ) );
#2 = SURFACE_STYLE_USAGE ( .BOTH. , #3 ) ;
#3 = SURFACE_SIDE_STYLE ('',( #60 ) ) ;
#4 = COLOUR_RGB ( '',0.3843137254901960500, 0.3843137254901960500, 0.3843137254901960500 ) ;
#5 = DIRECTION ( 'NONE',  ( -1.000000000000000000, 0.0000000000000000000, 0.0000000000000000000 ) ) ;
#6 =( LENGTH_UNIT ( ) NAMED_UNIT ( * ) SI_UNIT ( .MILLI., .METRE. ) );
#7 = ADVANCED_FACE ( 'NONE', ( #100 ), #49, .T. ) ;
#8 = DIRECTION ( 'NONE',  ( -1.000000000000000000, 0.0000000000000000000, 0.0000000000000000000 ) ) ;
#9 = EDGE_CURVE ( 'NONE', #74, #69, #15, .T. ) ;
#10 = EDGE_CURVE ( 'NONE', #74, #121, #65, .T. ) ;
#11 = PRODUCT_RELATED_PRODUCT_CATEGORY ( 'part', '', ( #78 ) ) ;
#12 = PRODUCT_DEFINITION_FORMATION_WITH_SPECIFIED_SOURCE ( 'ANY', '', #78, .NOT_KNOWN. ) ;
#13 =( NAMED_UNIT ( * ) PLANE_ANGLE_UNIT ( ) SI_UNIT ( $, .RADIAN. ) );
#14 = CARTESIAN_POINT ( 'NONE',  ( -257.0000000000000000, 0.0000000000000000000, 0.0000000000000000000 ) ) ;
#15 = CIRCLE ( 'NONE', #141, 3.500000000000003100 ) ;
#16 = CARTESIAN_POINT ( 'NONE',  ( 257.0000000000000000, 3.147342273808697700E-014, 0.0000000000000000000 ) ) ;
#17 = PRODUCT_DEFINITION ( 'UNKNOWN', '', #12, #75 ) ;
#18 = ADVANCED_BREP_SHAPE_REPRESENTATION ( '302DOR500-S1', ( #144, #20 ), #46 ) ;
#19 = CARTESIAN_POINT ( 'NONE',  ( -260.5000000000000000, 0.0000000000000000000, 0.0000000000000000000 ) ) ;
#20 = AXIS2_PLACEMENT_3D ( 'NONE', #149, #94, #22 ) ;
#21 = DIRECTION ( 'NONE',  ( 0.0000000000000000000, -1.000000000000000000, 0.0000000000000000000 ) ) ;
#22 = DIRECTION ( 'NONE',  ( 1.000000000000000000, 0.0000000000000000000, 0.0000000000000000000 ) ) ;
#23 = TOROIDAL_SURFACE ( 'NONE', #127, 257.0000000000000000, 3.500000000000002700 ) ;
#24 =( GEOMETRIC_REPRESENTATION_CONTEXT ( 3 ) GLOBAL_UNCERTAINTY_ASSIGNED_CONTEXT ( ( #154 ) ) GLOBAL_UNIT_ASSIGNED_CONTEXT ( ( #71, #1, #80 ) ) REPRESENTATION_CONTEXT ( 'NONE', 'WORKASPACE' ) );
#25 = TOROIDAL_SURFACE ( 'NONE', #64, 257.0000000000000000, 3.500000000000002700 ) ;
#26 = MECHANICAL_DESIGN_GEOMETRIC_PRESENTATION_REPRESENTATION (  '', ( #34 ), #24 ) ;
#27 = DIRECTION ( 'NONE',  ( -1.000000000000000000, 0.0000000000000000000, 0.0000000000000000000 ) ) ;
#28 = ADVANCED_FACE ( 'NONE', ( #61 ), #54, .T. ) ;
#29 = DIRECTION ( 'NONE',  ( 0.0000000000000000000, 0.0000000000000000000, -1.000000000000000000 ) ) ;
#30 = EDGE_CURVE ( 'NONE', #120, #69, #77, .T. ) ;
#31 = PRESENTATION_LAYER_ASSIGNMENT (  '', '', ( #34 ) ) ;
#32 = APPLICATION_PROTOCOL_DEFINITION ( 'draft international standard', 'automotive_design', 1998, #107 ) ;
#33 = PRESENTATION_STYLE_ASSIGNMENT (( #152 ) ) ;
#34 = STYLED_ITEM ( 'NONE', ( #33 ), #18 ) ;
#35 =( NAMED_UNIT ( * ) PLANE_ANGLE_UNIT ( ) SI_UNIT ( $, .RADIAN. ) );
#36 = FILL_AREA_STYLE_COLOUR ( '', #98 ) ;
#37 = ADVANCED_FACE ( 'NONE', ( #87 ), #23, .T. ) ;
#38 = CARTESIAN_POINT ( 'NONE',  ( 0.0000000000000000000, 0.0000000000000000000, 0.0000000000000000000 ) ) ;
#39 = EDGE_LOOP ( 'NONE', ( #83, #86, #139, #68 ) ) ;
#40 = DIRECTION ( 'NONE',  ( -1.000000000000000000, -1.224646799147349500E-016, 0.0000000000000000000 ) ) ;
#41 = FACE_OUTER_BOUND ( 'NONE', #123, .T. ) ;
#42 = EDGE_CURVE ( 'NONE', #120, #121, #146, .T. ) ;
#43 = CIRCLE ( 'NONE', #89, 3.500000000000002700 ) ;
#44 = APPLICATION_CONTEXT ( 'automotive_design' ) ;
#45 = DIRECTION ( 'NONE',  ( -1.224646799147353200E-016, 1.000000000000000000, 0.0000000000000000000 ) ) ;
#46 =( GEOMETRIC_REPRESENTATION_CONTEXT ( 3 ) GLOBAL_UNCERTAINTY_ASSIGNED_CONTEXT ( ( #109 ) ) GLOBAL_UNIT_ASSIGNED_CONTEXT ( ( #70, #13, #106 ) ) REPRESENTATION_CONTEXT ( 'NONE', 'WORKASPACE' ) );
#47 = CARTESIAN_POINT ( 'NONE',  ( 257.0000000000000000, 3.147342273808697700E-014, 0.0000000000000000000 ) ) ;
#48 = DIRECTION ( 'NONE',  ( -0.0000000000000000000, -0.0000000000000000000, -1.000000000000000000 ) ) ;
#49 = TOROIDAL_SURFACE ( 'NONE', #150, 257.0000000000000000, 3.500000000000002700 ) ;
#50 = CARTESIAN_POINT ( 'NONE',  ( 260.5000000000000000, 3.190204911778855000E-014, 0.0000000000000000000 ) ) ;
#51 = CARTESIAN_POINT ( 'NONE',  ( 0.0000000000000000000, 0.0000000000000000000, 0.0000000000000000000 ) ) ;
#52 = AXIS2_PLACEMENT_3D ( 'NONE', #90, #84, #140 ) ;
#53 = SURFACE_STYLE_FILL_AREA ( #55 ) ;
#54 = TOROIDAL_SURFACE ( 'NONE', #135, 257.0000000000000000, 3.500000000000002700 ) ;
#55 = FILL_AREA_STYLE ('',( #155 ) ) ;
#56 = PRODUCT_DEFINITION_SHAPE ( 'NONE', 'NONE',  #17 ) ;
#57 = ORIENTED_EDGE ( 'NONE', *, *, #10, .T. ) ;
#58 = SURFACE_SIDE_STYLE ('',( #53 ) ) ;
#59 = EDGE_CURVE ( 'NONE', #69, #74, #134, .T. ) ;
#60 = SURFACE_STYLE_FILL_AREA ( #148 ) ;
#61 = FACE_OUTER_BOUND ( 'NONE', #39, .T. ) ;
#62 = DIRECTION ( 'NONE',  ( -0.0000000000000000000, -0.0000000000000000000, -1.000000000000000000 ) ) ;
#63 = CARTESIAN_POINT ( 'NONE',  ( 0.0000000000000000000, 0.0000000000000000000, 0.0000000000000000000 ) ) ;
#64 = AXIS2_PLACEMENT_3D ( 'NONE', #38, #130, #95 ) ;
#65 = CIRCLE ( 'NONE', #153, 260.5000000000000000 ) ;
#66 = DIRECTION ( 'NONE',  ( -0.0000000000000000000, -0.0000000000000000000, -1.000000000000000000 ) ) ;
#67 = DIRECTION ( 'NONE',  ( -0.0000000000000000000, -0.0000000000000000000, -1.000000000000000000 ) ) ;
#68 = ORIENTED_EDGE ( 'NONE', *, *, #42, .T. ) ;
#69 = VERTEX_POINT ( 'NONE', #143 ) ;
#70 =( LENGTH_UNIT ( ) NAMED_UNIT ( * ) SI_UNIT ( .MILLI., .METRE. ) );
#71 =( LENGTH_UNIT ( ) NAMED_UNIT ( * ) SI_UNIT ( .MILLI., .METRE. ) );
#72 = SHAPE_DEFINITION_REPRESENTATION ( #56, #18 ) ;
#73 = ORIENTED_EDGE ( 'NONE', *, *, #30, .T. ) ;
#74 = VERTEX_POINT ( 'NONE', #50 ) ;
#75 = PRODUCT_DEFINITION_CONTEXT ( 'detailed design', #44, 'design' ) ;
#76 = CARTESIAN_POINT ( 'NONE',  ( 0.0000000000000000000, 0.0000000000000000000, 4.286263797015739600E-016 ) ) ;
#77 = CIRCLE ( 'NONE', #142, 253.5000000000000000 ) ;
#78 = PRODUCT ( '302DOR500-S1', '302DOR500-S1', '', ( #124 ) ) ;
#79 = ORIENTED_EDGE ( 'NONE', *, *, #42, .F. ) ;
#80 =( NAMED_UNIT ( * ) SI_UNIT ( $, .STERADIAN. ) SOLID_ANGLE_UNIT ( ) );
#81 = ORIENTED_EDGE ( 'NONE', *, *, #59, .T. ) ;
#82 = EDGE_LOOP ( 'NONE', ( #101, #79, #73, #81 ) ) ;
#83 = ORIENTED_EDGE ( 'NONE', *, *, #10, .F. ) ;
#84 = DIRECTION ( 'NONE',  ( -0.0000000000000000000, -0.0000000000000000000, -1.000000000000000000 ) ) ;
#85 = DIRECTION ( 'NONE',  ( -1.000000000000000000, 0.0000000000000000000, 0.0000000000000000000 ) ) ;
#86 = ORIENTED_EDGE ( 'NONE', *, *, #59, .F. ) ;
#87 = FACE_OUTER_BOUND ( 'NONE', #93, .T. ) ;
#88 = DIRECTION ( 'NONE',  ( 0.0000000000000000000, 0.0000000000000000000, -1.000000000000000000 ) ) ;
#89 = AXIS2_PLACEMENT_3D ( 'NONE', #122, #91, #88 ) ;
#90 = CARTESIAN_POINT ( 'NONE',  ( 0.0000000000000000000, 0.0000000000000000000, 4.286263797015739600E-016 ) ) ;
#91 = DIRECTION ( 'NONE',  ( 0.0000000000000000000, -1.000000000000000000, 0.0000000000000000000 ) ) ;
#92 = ORIENTED_EDGE ( 'NONE', *, *, #9, .T. ) ;
#93 = EDGE_LOOP ( 'NONE', ( #97, #116, #92, #99 ) ) ;
#94 = DIRECTION ( 'NONE',  ( 0.0000000000000000000, 0.0000000000000000000, 1.000000000000000000 ) ) ;
#95 = DIRECTION ( 'NONE',  ( -1.000000000000000000, 0.0000000000000000000, 0.0000000000000000000 ) ) ;
#96 =( GEOMETRIC_REPRESENTATION_CONTEXT ( 3 ) GLOBAL_UNCERTAINTY_ASSIGNED_CONTEXT ( ( #157 ) ) GLOBAL_UNIT_ASSIGNED_CONTEXT ( ( #6, #35, #129 ) ) REPRESENTATION_CONTEXT ( 'NONE', 'WORKASPACE' ) );
#97 = ORIENTED_EDGE ( 'NONE', *, *, #156, .F. ) ;
#98 = COLOUR_RGB ( '',0.3843137254901960500, 0.3843137254901960500, 0.3843137254901960500 ) ;
#99 = ORIENTED_EDGE ( 'NONE', *, *, #30, .F. ) ;
#100 = FACE_OUTER_BOUND ( 'NONE', #82, .T. ) ;
#101 = ORIENTED_EDGE ( 'NONE', *, *, #102, .F. ) ;
#102 = EDGE_CURVE ( 'NONE', #121, #74, #136, .T. ) ;
#103 = DIRECTION ( 'NONE',  ( -0.0000000000000000000, -0.0000000000000000000, -1.000000000000000000 ) ) ;
#104 = MECHANICAL_DESIGN_GEOMETRIC_PRESENTATION_REPRESENTATION (  '', ( #105 ), #96 ) ;
#105 = STYLED_ITEM ( 'NONE', ( #133 ), #144 ) ;
#106 =( NAMED_UNIT ( * ) SI_UNIT ( $, .STERADIAN. ) SOLID_ANGLE_UNIT ( ) );
#107 = APPLICATION_CONTEXT ( 'automotive_design' ) ;
#108 = CLOSED_SHELL ( 'NONE', ( #151, #37, #7, #28 ) ) ;
#109 = UNCERTAINTY_MEASURE_WITH_UNIT (LENGTH_MEASURE( 1.000000000000000100E-005 ), #70, 'distance_accuracy_value', 'NONE');
#110 = DIRECTION ( 'NONE',  ( -0.0000000000000000000, -0.0000000000000000000, -1.000000000000000000 ) ) ;
#111 = AXIS2_PLACEMENT_3D ( 'NONE', #126, #103, #5 ) ;
#112 = CIRCLE ( 'NONE', #52, 253.5000000000000000 ) ;
#113 = DIRECTION ( 'NONE',  ( -1.224646799147353200E-016, 1.000000000000000000, 0.0000000000000000000 ) ) ;
#114 = PRESENTATION_LAYER_ASSIGNMENT (  '', '', ( #105 ) ) ;
#115 = CARTESIAN_POINT ( 'NONE',  ( 0.0000000000000000000, 0.0000000000000000000, 0.0000000000000000000 ) ) ;
#116 = ORIENTED_EDGE ( 'NONE', *, *, #102, .T. ) ;
#117 = AXIS2_PLACEMENT_3D ( 'NONE', #16, #45, #40 ) ;
#118 = CARTESIAN_POINT ( 'NONE',  ( 0.0000000000000000000, 0.0000000000000000000, 0.0000000000000000000 ) ) ;
#119 = DIRECTION ( 'NONE',  ( -1.000000000000000000, 0.0000000000000000000, 0.0000000000000000000 ) ) ;
#120 = VERTEX_POINT ( 'NONE', #132 ) ;
#121 = VERTEX_POINT ( 'NONE', #19 ) ;
#122 = CARTESIAN_POINT ( 'NONE',  ( -257.0000000000000000, 0.0000000000000000000, 0.0000000000000000000 ) ) ;
#123 = EDGE_LOOP ( 'NONE', ( #145, #57, #137, #125 ) ) ;
#124 = PRODUCT_CONTEXT ( 'NONE', #107, 'mechanical' ) ;
#125 = ORIENTED_EDGE ( 'NONE', *, *, #158, .F. ) ;
#126 = CARTESIAN_POINT ( 'NONE',  ( 0.0000000000000000000, 0.0000000000000000000, 0.0000000000000000000 ) ) ;
#127 = AXIS2_PLACEMENT_3D ( 'NONE', #118, #110, #8 ) ;
#128 = DIRECTION ( 'NONE',  ( -1.000000000000000000, 0.0000000000000000000, 0.0000000000000000000 ) ) ;
#129 =( NAMED_UNIT ( * ) SI_UNIT ( $, .STERADIAN. ) SOLID_ANGLE_UNIT ( ) );
#130 = DIRECTION ( 'NONE',  ( -0.0000000000000000000, -0.0000000000000000000, -1.000000000000000000 ) ) ;
#131 = AXIS2_PLACEMENT_3D ( 'NONE', #14, #21, #29 ) ;
#132 = CARTESIAN_POINT ( 'NONE',  ( -253.5000000000000000, 0.0000000000000000000, 4.286263797015739100E-016 ) ) ;
#133 = PRESENTATION_STYLE_ASSIGNMENT (( #2 ) ) ;
#134 = CIRCLE ( 'NONE', #117, 3.500000000000003100 ) ;
#135 = AXIS2_PLACEMENT_3D ( 'NONE', #115, #48, #27 ) ;
#136 = CIRCLE ( 'NONE', #111, 260.5000000000000000 ) ;
#137 = ORIENTED_EDGE ( 'NONE', *, *, #156, .T. ) ;
#138 = APPLICATION_PROTOCOL_DEFINITION ( 'draft international standard', 'automotive_design', 1998, #44 ) ;
#139 = ORIENTED_EDGE ( 'NONE', *, *, #158, .T. ) ;
#140 = DIRECTION ( 'NONE',  ( -1.000000000000000000, 0.0000000000000000000, 0.0000000000000000000 ) ) ;
#141 = AXIS2_PLACEMENT_3D ( 'NONE', #47, #113, #147 ) ;
#142 = AXIS2_PLACEMENT_3D ( 'NONE', #76, #67, #119 ) ;
#143 = CARTESIAN_POINT ( 'NONE',  ( 253.5000000000000000, 3.104479635838540400E-014, 0.0000000000000000000 ) ) ;
#144 = MANIFOLD_SOLID_BREP ( 'Rotation1', #108 ) ;
#145 = ORIENTED_EDGE ( 'NONE', *, *, #9, .F. ) ;
#146 = CIRCLE ( 'NONE', #131, 3.500000000000002700 ) ;
#147 = DIRECTION ( 'NONE',  ( -1.000000000000000000, -1.224646799147349500E-016, 0.0000000000000000000 ) ) ;
#148 = FILL_AREA_STYLE ('',( #36 ) ) ;
#149 = CARTESIAN_POINT ( 'NONE',  ( 0.0000000000000000000, 0.0000000000000000000, 0.0000000000000000000 ) ) ;
#150 = AXIS2_PLACEMENT_3D ( 'NONE', #51, #62, #85 ) ;
#151 = ADVANCED_FACE ( 'NONE', ( #41 ), #25, .T. ) ;
#152 = SURFACE_STYLE_USAGE ( .BOTH. , #58 ) ;
#153 = AXIS2_PLACEMENT_3D ( 'NONE', #63, #66, #128 ) ;
#154 = UNCERTAINTY_MEASURE_WITH_UNIT (LENGTH_MEASURE( 1.000000000000000100E-005 ), #71, 'distance_accuracy_value', 'NONE');
#155 = FILL_AREA_STYLE_COLOUR ( '', #4 ) ;
#156 = EDGE_CURVE ( 'NONE', #121, #120, #43, .T. ) ;
#157 = UNCERTAINTY_MEASURE_WITH_UNIT (LENGTH_MEASURE( 1.000000000000000100E-005 ), #6, 'distance_accuracy_value', 'NONE');
#158 = EDGE_CURVE ( 'NONE', #69, #120, #112, .T. ) ;
ENDSEC;
END-ISO-10303-21;
