ISO-10303-21;
HEADER;
FILE_DESCRIPTION (( 'STEP AP214' ),
    '1' );
FILE_NAME ('490DFL250-G-S5.stp',
    '2017-10-11T11:16:49',
    ( '' ),
    ( '' ),
    'SwSTEP 2.0',
    'SolidWorks 2015',
    '' );
FILE_SCHEMA (( 'AUTOMOTIVE_DESIGN' ));
ENDSEC;

DATA;
#1 = LINE ( 'NONE', #3, #148 ) ;
#2 = DIRECTION ( 'NONE',  ( 0.0000000000000000000, 0.0000000000000000000, 1.000000000000000000 ) ) ;
#3 = CARTESIAN_POINT ( 'NONE',  ( 127.0000000000000000, 0.0000000000000000000, -2.000000000000000000 ) ) ;
#4 = AXIS2_PLACEMENT_3D ( 'NONE', #103, #89, #100 ) ;
#5 = DIRECTION ( 'NONE',  ( 0.0000000000000000000, 0.0000000000000000000, 1.000000000000000000 ) ) ;
#6 = EDGE_LOOP ( 'NONE', ( #150, #166 ) ) ;
#7 = AXIS2_PLACEMENT_3D ( 'NONE', #80, #25, #156 ) ;
#8 = ORIENTED_EDGE ( 'NONE', *, *, #121, .F. ) ;
#9 = AXIS2_PLACEMENT_3D ( 'NONE', #175, #16, #34 ) ;
#10 = CYLINDRICAL_SURFACE ( 'NONE', #210, 136.4499999999999900 ) ;
#11 = SURFACE_STYLE_USAGE ( .BOTH. , #201 ) ;
#12 = APPLICATION_CONTEXT ( 'automotive_design' ) ;
#13 = PRODUCT_DEFINITION ( 'UNKNOWN', '', #23, #133 ) ;
#14 = ORIENTED_EDGE ( 'NONE', *, *, #154, .F. ) ;
#15 =( NAMED_UNIT ( * ) PLANE_ANGLE_UNIT ( ) SI_UNIT ( $, .RADIAN. ) );
#16 = DIRECTION ( 'NONE',  ( 0.0000000000000000000, 0.0000000000000000000, 1.000000000000000000 ) ) ;
#17 = LINE ( 'NONE', #153, #31 ) ;
#18 = CARTESIAN_POINT ( 'NONE',  ( 0.0000000000000000000, 0.0000000000000000000, -2.000000000000000000 ) ) ;
#19 = AXIS2_PLACEMENT_3D ( 'NONE', #185, #172, #160 ) ;
#20 = VERTEX_POINT ( 'NONE', #71 ) ;
#21 = VERTEX_POINT ( 'NONE', #165 ) ;
#22 = ORIENTED_EDGE ( 'NONE', *, *, #85, .F. ) ;
#23 = PRODUCT_DEFINITION_FORMATION_WITH_SPECIFIED_SOURCE ( 'ANY', '', #113, .NOT_KNOWN. ) ;
#24 = UNCERTAINTY_MEASURE_WITH_UNIT (LENGTH_MEASURE( 1.000000000000000100E-005 ), #120, 'distance_accuracy_value', 'NONE');
#25 = DIRECTION ( 'NONE',  ( 0.0000000000000000000, 0.0000000000000000000, 1.000000000000000000 ) ) ;
#26 = STYLED_ITEM ( 'NONE', ( #197 ), #207 ) ;
#27 = DIRECTION ( 'NONE',  ( 0.0000000000000000000, 0.0000000000000000000, 1.000000000000000000 ) ) ;
#28 = VERTEX_POINT ( 'NONE', #29 ) ;
#29 = CARTESIAN_POINT ( 'NONE',  ( 136.4499999999999900, 0.0000000000000000000, -2.000000000000000000 ) ) ;
#30 = DIRECTION ( 'NONE',  ( 0.0000000000000000000, 0.0000000000000000000, 1.000000000000000000 ) ) ;
#31 = VECTOR ( 'NONE', #124, 1000.000000000000000 ) ;
#32 = DIRECTION ( 'NONE',  ( 0.0000000000000000000, 0.0000000000000000000, 1.000000000000000000 ) ) ;
#33 = EDGE_CURVE ( 'NONE', #142, #20, #87, .T. ) ;
#34 = DIRECTION ( 'NONE',  ( 1.000000000000000000, 0.0000000000000000000, -0.0000000000000000000 ) ) ;
#35 = CARTESIAN_POINT ( 'NONE',  ( 0.0000000000000000000, 0.0000000000000000000, -2.000000000000000000 ) ) ;
#36 = EDGE_LOOP ( 'NONE', ( #83, #205, #119, #196 ) ) ;
#37 = DIRECTION ( 'NONE',  ( 1.000000000000000000, 0.0000000000000000000, -0.0000000000000000000 ) ) ;
#38 = PRODUCT_RELATED_PRODUCT_CATEGORY ( 'part', '', ( #113 ) ) ;
#39 = DIRECTION ( 'NONE',  ( 1.000000000000000000, 0.0000000000000000000, 0.0000000000000000000 ) ) ;
#40 = CYLINDRICAL_SURFACE ( 'NONE', #146, 127.0000000000000000 ) ;
#41 = FACE_OUTER_BOUND ( 'NONE', #132, .T. ) ;
#42 = CIRCLE ( 'NONE', #173, 136.4499999999999900 ) ;
#43 = AXIS2_PLACEMENT_3D ( 'NONE', #140, #139, #110 ) ;
#44 = ORIENTED_EDGE ( 'NONE', *, *, #163, .T. ) ;
#45 =( LENGTH_UNIT ( ) NAMED_UNIT ( * ) SI_UNIT ( .MILLI., .METRE. ) );
#46 = ORIENTED_EDGE ( 'NONE', *, *, #144, .T. ) ;
#47 = CARTESIAN_POINT ( 'NONE',  ( 0.0000000000000000000, 0.0000000000000000000, -2.000000000000000000 ) ) ;
#48 = CARTESIAN_POINT ( 'NONE',  ( 0.0000000000000000000, 0.0000000000000000000, -2.000000000000000000 ) ) ;
#49 = DIRECTION ( 'NONE',  ( 0.0000000000000000000, 0.0000000000000000000, 1.000000000000000000 ) ) ;
#50 = DIRECTION ( 'NONE',  ( 0.0000000000000000000, 0.0000000000000000000, 1.000000000000000000 ) ) ;
#51 =( NAMED_UNIT ( * ) SI_UNIT ( $, .STERADIAN. ) SOLID_ANGLE_UNIT ( ) );
#52 = ADVANCED_FACE ( 'NONE', ( #106, #208 ), #86, .T. ) ;
#53 = DIRECTION ( 'NONE',  ( 0.0000000000000000000, 0.0000000000000000000, 1.000000000000000000 ) ) ;
#54 = APPLICATION_PROTOCOL_DEFINITION ( 'draft international standard', 'automotive_design', 1998, #12 ) ;
#55 = ADVANCED_FACE ( 'NONE', ( #174, #98 ), #94, .F. ) ;
#56 = CARTESIAN_POINT ( 'NONE',  ( -136.4499999999999900, 1.671030557436563400E-014, 0.0000000000000000000 ) ) ;
#57 = CIRCLE ( 'NONE', #204, 127.0000000000000000 ) ;
#58 = UNCERTAINTY_MEASURE_WITH_UNIT (LENGTH_MEASURE( 1.000000000000000100E-005 ), #45, 'distance_accuracy_value', 'NONE');
#59 = DIRECTION ( 'NONE',  ( 0.0000000000000000000, 0.0000000000000000000, 1.000000000000000000 ) ) ;
#60 = AXIS2_PLACEMENT_3D ( 'NONE', #35, #59, #192 ) ;
#61 =( NAMED_UNIT ( * ) SI_UNIT ( $, .STERADIAN. ) SOLID_ANGLE_UNIT ( ) );
#62 = EDGE_LOOP ( 'NONE', ( #158, #68 ) ) ;
#63 = DIRECTION ( 'NONE',  ( 0.0000000000000000000, 0.0000000000000000000, 1.000000000000000000 ) ) ;
#64 = CARTESIAN_POINT ( 'NONE',  ( 0.0000000000000000000, 0.0000000000000000000, 0.0000000000000000000 ) ) ;
#65 = EDGE_CURVE ( 'NONE', #21, #28, #42, .T. ) ;
#66 = EDGE_LOOP ( 'NONE', ( #22, #162, #91, #78 ) ) ;
#67 = ORIENTED_EDGE ( 'NONE', *, *, #107, .T. ) ;
#68 = ORIENTED_EDGE ( 'NONE', *, *, #117, .F. ) ;
#69 = AXIS2_PLACEMENT_3D ( 'NONE', #131, #130, #126 ) ;
#70 = ORIENTED_EDGE ( 'NONE', *, *, #141, .T. ) ;
#71 = CARTESIAN_POINT ( 'NONE',  ( -127.0000000000000000, 1.555301434917138600E-014, -2.000000000000000000 ) ) ;
#72 = CARTESIAN_POINT ( 'NONE',  ( 127.0000000000000000, 0.0000000000000000000, -2.000000000000000000 ) ) ;
#73 = ADVANCED_FACE ( 'NONE', ( #136 ), #10, .T. ) ;
#74 = PRODUCT_DEFINITION_SHAPE ( 'NONE', 'NONE',  #13 ) ;
#75 =( NAMED_UNIT ( * ) PLANE_ANGLE_UNIT ( ) SI_UNIT ( $, .RADIAN. ) );
#76 = CIRCLE ( 'NONE', #7, 127.0000000000000000 ) ;
#77 = DIRECTION ( 'NONE',  ( 0.0000000000000000000, 0.0000000000000000000, 1.000000000000000000 ) ) ;
#78 = ORIENTED_EDGE ( 'NONE', *, *, #107, .F. ) ;
#79 = CARTESIAN_POINT ( 'NONE',  ( -127.0000000000000000, 1.555301434917138600E-014, -2.000000000000000000 ) ) ;
#80 = CARTESIAN_POINT ( 'NONE',  ( 0.0000000000000000000, 0.0000000000000000000, 0.0000000000000000000 ) ) ;
#81 = FACE_OUTER_BOUND ( 'NONE', #66, .T. ) ;
#82 = AXIS2_PLACEMENT_3D ( 'NONE', #95, #49, #143 ) ;
#83 = ORIENTED_EDGE ( 'NONE', *, *, #141, .F. ) ;
#84 = SHAPE_DEFINITION_REPRESENTATION ( #74, #135 ) ;
#85 = EDGE_CURVE ( 'NONE', #20, #142, #57, .T. ) ;
#86 = PLANE ( 'NONE',  #9 ) ;
#87 = CIRCLE ( 'NONE', #187, 127.0000000000000000 ) ;
#88 = PRODUCT_CONTEXT ( 'NONE', #12, 'mechanical' ) ;
#89 = DIRECTION ( 'NONE',  ( 0.0000000000000000000, 0.0000000000000000000, 1.000000000000000000 ) ) ;
#90 = SURFACE_STYLE_FILL_AREA ( #198 ) ;
#91 = ORIENTED_EDGE ( 'NONE', *, *, #117, .T. ) ;
#92 = ORIENTED_EDGE ( 'NONE', *, *, #33, .F. ) ;
#93 = PRESENTATION_LAYER_ASSIGNMENT (  '', '', ( #26 ) ) ;
#94 = PLANE ( 'NONE',  #182 ) ;
#95 = CARTESIAN_POINT ( 'NONE',  ( 0.0000000000000000000, 0.0000000000000000000, -2.000000000000000000 ) ) ;
#96 = VECTOR ( 'NONE', #157, 1000.000000000000000 ) ;
#97 = EDGE_CURVE ( 'NONE', #116, #155, #180, .T. ) ;
#98 = FACE_OUTER_BOUND ( 'NONE', #211, .T. ) ;
#99 = ORIENTED_EDGE ( 'NONE', *, *, #65, .F. ) ;
#100 = DIRECTION ( 'NONE',  ( 1.000000000000000000, 0.0000000000000000000, 0.0000000000000000000 ) ) ;
#101 = MECHANICAL_DESIGN_GEOMETRIC_PRESENTATION_REPRESENTATION (  '', ( #26 ), #114 ) ;
#102 = DIRECTION ( 'NONE',  ( 1.000000000000000000, 0.0000000000000000000, 0.0000000000000000000 ) ) ;
#103 = CARTESIAN_POINT ( 'NONE',  ( 0.0000000000000000000, 0.0000000000000000000, 0.0000000000000000000 ) ) ;
#104 = LINE ( 'NONE', #151, #96 ) ;
#105 = CARTESIAN_POINT ( 'NONE',  ( 0.0000000000000000000, 0.0000000000000000000, -2.000000000000000000 ) ) ;
#106 = FACE_BOUND ( 'NONE', #62, .T. ) ;
#107 = EDGE_CURVE ( 'NONE', #142, #199, #1, .T. ) ;
#108 = DIRECTION ( 'NONE',  ( 1.000000000000000000, 0.0000000000000000000, 0.0000000000000000000 ) ) ;
#109 = ORIENTED_EDGE ( 'NONE', *, *, #144, .F. ) ;
#110 = DIRECTION ( 'NONE',  ( 1.000000000000000000, 0.0000000000000000000, 0.0000000000000000000 ) ) ;
#111 = CARTESIAN_POINT ( 'NONE',  ( -127.0000000000000000, 1.555301434917138600E-014, 0.0000000000000000000 ) ) ;
#112 = CLOSED_SHELL ( 'NONE', ( #152, #169, #73, #55, #52, #213 ) ) ;
#113 = PRODUCT ( '490DFL250-G-S5', '490DFL250-G-S5', '', ( #88 ) ) ;
#114 =( GEOMETRIC_REPRESENTATION_CONTEXT ( 3 ) GLOBAL_UNCERTAINTY_ASSIGNED_CONTEXT ( ( #189 ) ) GLOBAL_UNIT_ASSIGNED_CONTEXT ( ( #188, #75, #61 ) ) REPRESENTATION_CONTEXT ( 'NONE', 'WORKASPACE' ) );
#115 = ORIENTED_EDGE ( 'NONE', *, *, #97, .T. ) ;
#116 = VERTEX_POINT ( 'NONE', #171 ) ;
#117 = EDGE_CURVE ( 'NONE', #190, #199, #76, .T. ) ;
#118 = FILL_AREA_STYLE_COLOUR ( '', #202 ) ;
#119 = ORIENTED_EDGE ( 'NONE', *, *, #154, .T. ) ;
#120 =( LENGTH_UNIT ( ) NAMED_UNIT ( * ) SI_UNIT ( .MILLI., .METRE. ) );
#121 = EDGE_CURVE ( 'NONE', #20, #190, #145, .T. ) ;
#122 = CYLINDRICAL_SURFACE ( 'NONE', #82, 136.4499999999999900 ) ;
#123 = APPLICATION_CONTEXT ( 'automotive_design' ) ;
#124 = DIRECTION ( 'NONE',  ( 0.0000000000000000000, 0.0000000000000000000, 1.000000000000000000 ) ) ;
#125 = CARTESIAN_POINT ( 'NONE',  ( 0.0000000000000000000, 0.0000000000000000000, -2.000000000000000000 ) ) ;
#126 = DIRECTION ( 'NONE',  ( 1.000000000000000000, 0.0000000000000000000, 0.0000000000000000000 ) ) ;
#127 = ORIENTED_EDGE ( 'NONE', *, *, #97, .F. ) ;
#128 =( GEOMETRIC_REPRESENTATION_CONTEXT ( 3 ) GLOBAL_UNCERTAINTY_ASSIGNED_CONTEXT ( ( #24 ) ) GLOBAL_UNIT_ASSIGNED_CONTEXT ( ( #120, #15, #51 ) ) REPRESENTATION_CONTEXT ( 'NONE', 'WORKASPACE' ) );
#129 = CARTESIAN_POINT ( 'NONE',  ( 127.0000000000000000, 0.0000000000000000000, 0.0000000000000000000 ) ) ;
#130 = DIRECTION ( 'NONE',  ( 0.0000000000000000000, 0.0000000000000000000, 1.000000000000000000 ) ) ;
#131 = CARTESIAN_POINT ( 'NONE',  ( 0.0000000000000000000, 0.0000000000000000000, 0.0000000000000000000 ) ) ;
#132 = EDGE_LOOP ( 'NONE', ( #46, #70, #127, #14 ) ) ;
#133 = PRODUCT_DEFINITION_CONTEXT ( 'detailed design', #123, 'design' ) ;
#134 = CYLINDRICAL_SURFACE ( 'NONE', #60, 127.0000000000000000 ) ;
#135 = ADVANCED_BREP_SHAPE_REPRESENTATION ( '490DFL250-G-S5', ( #207, #4 ), #128 ) ;
#136 = FACE_OUTER_BOUND ( 'NONE', #36, .T. ) ;
#137 = FILL_AREA_STYLE_COLOUR ( '', #209 ) ;
#138 = STYLED_ITEM ( 'NONE', ( #161 ), #135 ) ;
#139 = DIRECTION ( 'NONE',  ( 0.0000000000000000000, 0.0000000000000000000, 1.000000000000000000 ) ) ;
#140 = CARTESIAN_POINT ( 'NONE',  ( 0.0000000000000000000, 0.0000000000000000000, 0.0000000000000000000 ) ) ;
#141 = EDGE_CURVE ( 'NONE', #21, #155, #17, .T. ) ;
#142 = VERTEX_POINT ( 'NONE', #72 ) ;
#143 = DIRECTION ( 'NONE',  ( 1.000000000000000000, 0.0000000000000000000, 0.0000000000000000000 ) ) ;
#144 = EDGE_CURVE ( 'NONE', #28, #21, #194, .T. ) ;
#145 = LINE ( 'NONE', #79, #176 ) ;
#146 = AXIS2_PLACEMENT_3D ( 'NONE', #125, #30, #102 ) ;
#147 = EDGE_LOOP ( 'NONE', ( #8, #92, #67, #44 ) ) ;
#148 = VECTOR ( 'NONE', #32, 1000.000000000000000 ) ;
#149 = DIRECTION ( 'NONE',  ( 1.000000000000000000, 0.0000000000000000000, 0.0000000000000000000 ) ) ;
#150 = ORIENTED_EDGE ( 'NONE', *, *, #33, .T. ) ;
#151 = CARTESIAN_POINT ( 'NONE',  ( 136.4499999999999900, 0.0000000000000000000, -2.000000000000000000 ) ) ;
#152 = ADVANCED_FACE ( 'NONE', ( #81 ), #134, .F. ) ;
#153 = CARTESIAN_POINT ( 'NONE',  ( -136.4499999999999900, 1.671030557436563400E-014, -2.000000000000000000 ) ) ;
#154 = EDGE_CURVE ( 'NONE', #28, #116, #104, .T. ) ;
#155 = VERTEX_POINT ( 'NONE', #56 ) ;
#156 = DIRECTION ( 'NONE',  ( 1.000000000000000000, 0.0000000000000000000, 0.0000000000000000000 ) ) ;
#157 = DIRECTION ( 'NONE',  ( 0.0000000000000000000, 0.0000000000000000000, 1.000000000000000000 ) ) ;
#158 = ORIENTED_EDGE ( 'NONE', *, *, #163, .F. ) ;
#159 = DIRECTION ( 'NONE',  ( 1.000000000000000000, 0.0000000000000000000, 0.0000000000000000000 ) ) ;
#160 = DIRECTION ( 'NONE',  ( 1.000000000000000000, 0.0000000000000000000, 0.0000000000000000000 ) ) ;
#161 = PRESENTATION_STYLE_ASSIGNMENT (( #11 ) ) ;
#162 = ORIENTED_EDGE ( 'NONE', *, *, #121, .T. ) ;
#163 = EDGE_CURVE ( 'NONE', #199, #190, #214, .T. ) ;
#164 =( NAMED_UNIT ( * ) SI_UNIT ( $, .STERADIAN. ) SOLID_ANGLE_UNIT ( ) );
#165 = CARTESIAN_POINT ( 'NONE',  ( -136.4499999999999900, 1.671030557436563400E-014, -2.000000000000000000 ) ) ;
#166 = ORIENTED_EDGE ( 'NONE', *, *, #85, .T. ) ;
#167 = PRESENTATION_LAYER_ASSIGNMENT (  '', '', ( #138 ) ) ;
#168 = FILL_AREA_STYLE ('',( #137 ) ) ;
#169 = ADVANCED_FACE ( 'NONE', ( #41 ), #122, .T. ) ;
#170 = FACE_OUTER_BOUND ( 'NONE', #147, .T. ) ;
#171 = CARTESIAN_POINT ( 'NONE',  ( 136.4499999999999900, 0.0000000000000000000, 0.0000000000000000000 ) ) ;
#172 = DIRECTION ( 'NONE',  ( 0.0000000000000000000, 0.0000000000000000000, 1.000000000000000000 ) ) ;
#173 = AXIS2_PLACEMENT_3D ( 'NONE', #47, #53, #159 ) ;
#174 = FACE_BOUND ( 'NONE', #6, .T. ) ;
#175 = CARTESIAN_POINT ( 'NONE',  ( 0.0000000000000000000, 0.0000000000000000000, 0.0000000000000000000 ) ) ;
#176 = VECTOR ( 'NONE', #50, 1000.000000000000000 ) ;
#177 = EDGE_CURVE ( 'NONE', #155, #116, #206, .T. ) ;
#178 = EDGE_LOOP ( 'NONE', ( #115, #193 ) ) ;
#179 = MECHANICAL_DESIGN_GEOMETRIC_PRESENTATION_REPRESENTATION (  '', ( #138 ), #191 ) ;
#180 = CIRCLE ( 'NONE', #195, 136.4499999999999900 ) ;
#181 =( NAMED_UNIT ( * ) PLANE_ANGLE_UNIT ( ) SI_UNIT ( $, .RADIAN. ) );
#182 = AXIS2_PLACEMENT_3D ( 'NONE', #18, #5, #37 ) ;
#183 = APPLICATION_PROTOCOL_DEFINITION ( 'draft international standard', 'automotive_design', 1998, #123 ) ;
#184 = SURFACE_SIDE_STYLE ('',( #203 ) ) ;
#185 = CARTESIAN_POINT ( 'NONE',  ( 0.0000000000000000000, 0.0000000000000000000, -2.000000000000000000 ) ) ;
#186 = CARTESIAN_POINT ( 'NONE',  ( 0.0000000000000000000, 0.0000000000000000000, -2.000000000000000000 ) ) ;
#187 = AXIS2_PLACEMENT_3D ( 'NONE', #186, #27, #200 ) ;
#188 =( LENGTH_UNIT ( ) NAMED_UNIT ( * ) SI_UNIT ( .MILLI., .METRE. ) );
#189 = UNCERTAINTY_MEASURE_WITH_UNIT (LENGTH_MEASURE( 1.000000000000000100E-005 ), #188, 'distance_accuracy_value', 'NONE');
#190 = VERTEX_POINT ( 'NONE', #111 ) ;
#191 =( GEOMETRIC_REPRESENTATION_CONTEXT ( 3 ) GLOBAL_UNCERTAINTY_ASSIGNED_CONTEXT ( ( #58 ) ) GLOBAL_UNIT_ASSIGNED_CONTEXT ( ( #45, #181, #164 ) ) REPRESENTATION_CONTEXT ( 'NONE', 'WORKASPACE' ) );
#192 = DIRECTION ( 'NONE',  ( 1.000000000000000000, 0.0000000000000000000, 0.0000000000000000000 ) ) ;
#193 = ORIENTED_EDGE ( 'NONE', *, *, #177, .T. ) ;
#194 = CIRCLE ( 'NONE', #19, 136.4499999999999900 ) ;
#195 = AXIS2_PLACEMENT_3D ( 'NONE', #64, #63, #149 ) ;
#196 = ORIENTED_EDGE ( 'NONE', *, *, #177, .F. ) ;
#197 = PRESENTATION_STYLE_ASSIGNMENT (( #212 ) ) ;
#198 = FILL_AREA_STYLE ('',( #118 ) ) ;
#199 = VERTEX_POINT ( 'NONE', #129 ) ;
#200 = DIRECTION ( 'NONE',  ( 1.000000000000000000, 0.0000000000000000000, 0.0000000000000000000 ) ) ;
#201 = SURFACE_SIDE_STYLE ('',( #90 ) ) ;
#202 = COLOUR_RGB ( '',0.7254901960784313500, 0.4470588235294117300, 0.3686274509803921800 ) ;
#203 = SURFACE_STYLE_FILL_AREA ( #168 ) ;
#204 = AXIS2_PLACEMENT_3D ( 'NONE', #105, #77, #39 ) ;
#205 = ORIENTED_EDGE ( 'NONE', *, *, #65, .T. ) ;
#206 = CIRCLE ( 'NONE', #69, 136.4499999999999900 ) ;
#207 = MANIFOLD_SOLID_BREP ( 'Aufsatz-Linear austragen1', #112 ) ;
#208 = FACE_OUTER_BOUND ( 'NONE', #178, .T. ) ;
#209 = COLOUR_RGB ( '',0.7254901960784313500, 0.4470588235294117300, 0.3686274509803921800 ) ;
#210 = AXIS2_PLACEMENT_3D ( 'NONE', #48, #2, #108 ) ;
#211 = EDGE_LOOP ( 'NONE', ( #109, #99 ) ) ;
#212 = SURFACE_STYLE_USAGE ( .BOTH. , #184 ) ;
#213 = ADVANCED_FACE ( 'NONE', ( #170 ), #40, .F. ) ;
#214 = CIRCLE ( 'NONE', #43, 127.0000000000000000 ) ;
ENDSEC;
END-ISO-10303-21;
