ISO-10303-21;
HEADER;
FILE_DESCRIPTION (( 'STEP AP214' ),
    '1' );
FILE_NAME ('402DFL063-Z.step',
    '2017-07-07T09:58:03',
    ( 'install' ),
    ( '' ),
    'SwSTEP 2.0',
    'SolidWorks 2015',
    '' );
FILE_SCHEMA (( 'AUTOMOTIVE_DESIGN' ));
ENDSEC;

DATA;
#1 = DIRECTION ( 'NONE',  ( 1.000000000000000000, 0.0000000000000000000, 0.0000000000000000000 ) ) ;
#2 = AXIS2_PLACEMENT_3D ( 'NONE', #102, #278, #83 ) ;
#3 = PRESENTATION_STYLE_ASSIGNMENT (( #242 ) ) ;
#4 = CARTESIAN_POINT ( 'NONE',  ( 0.0000000000000000000, 0.0000000000000000000, -1.000229926742453700 ) ) ;
#5 = CARTESIAN_POINT ( 'NONE',  ( 39.05500000000000000, 0.0000000000000000000, -0.9999999999999995600 ) ) ;
#6 =( NAMED_UNIT ( * ) SI_UNIT ( $, .STERADIAN. ) SOLID_ANGLE_UNIT ( ) );
#7 = ORIENTED_EDGE ( 'NONE', *, *, #150, .T. ) ;
#8 = ORIENTED_EDGE ( 'NONE', *, *, #276, .T. ) ;
#9 = LINE ( 'NONE', #181, #240 ) ;
#10 = CIRCLE ( 'NONE', #63, 35.89999999999999900 ) ;
#11 = CIRCLE ( 'NONE', #44, 39.05500000000000000 ) ;
#12 = ORIENTED_EDGE ( 'NONE', *, *, #135, .T. ) ;
#13 = MECHANICAL_DESIGN_GEOMETRIC_PRESENTATION_REPRESENTATION (  '', ( #296 ), #29 ) ;
#14 = ORIENTED_EDGE ( 'NONE', *, *, #135, .F. ) ;
#15 = CARTESIAN_POINT ( 'NONE',  ( 0.0000000000000000000, 0.0000000000000000000, -3.000000000000000000 ) ) ;
#16 = CARTESIAN_POINT ( 'NONE',  ( -40.10808929720140300, 4.911824317773391400E-015, -3.000000000000000000 ) ) ;
#17 = CARTESIAN_POINT ( 'NONE',  ( 0.0000000000000000000, 0.0000000000000000000, -1.000000000000000000 ) ) ;
#18 = EDGE_LOOP ( 'NONE', ( #127, #206, #283, #39 ) ) ;
#19 = CARTESIAN_POINT ( 'NONE',  ( 0.0000000000000000000, 0.0000000000000000000, -3.000000000000000000 ) ) ;
#20 = ADVANCED_FACE ( 'NONE', ( #232 ), #248, .F. ) ;
#21 = AXIS2_PLACEMENT_3D ( 'NONE', #200, #60, #228 ) ;
#22 = DIRECTION ( 'NONE',  ( -0.0000000000000000000, -0.0000000000000000000, 1.000000000000000000 ) ) ;
#23 = EDGE_LOOP ( 'NONE', ( #157, #221, #162, #301 ) ) ;
#24 = CARTESIAN_POINT ( 'NONE',  ( 35.89999999999999900, 0.0000000000000000000, -1.000000000000000000 ) ) ;
#25 = DIRECTION ( 'NONE',  ( 1.000000000000000000, 0.0000000000000000000, 0.0000000000000000000 ) ) ;
#26 = ORIENTED_EDGE ( 'NONE', *, *, #75, .T. ) ;
#27 = VERTEX_POINT ( 'NONE', #303 ) ;
#28 = PLANE ( 'NONE',  #90 ) ;
#29 =( GEOMETRIC_REPRESENTATION_CONTEXT ( 3 ) GLOBAL_UNCERTAINTY_ASSIGNED_CONTEXT ( ( #140 ) ) GLOBAL_UNIT_ASSIGNED_CONTEXT ( ( #96, #271, #119 ) ) REPRESENTATION_CONTEXT ( 'NONE', 'WORKASPACE' ) );
#30 =( NAMED_UNIT ( * ) PLANE_ANGLE_UNIT ( ) SI_UNIT ( $, .RADIAN. ) );
#31 = FACE_OUTER_BOUND ( 'NONE', #23, .T. ) ;
#32 = ADVANCED_FACE ( 'NONE', ( #125 ), #116, .T. ) ;
#33 = DIRECTION ( 'NONE',  ( 0.0000000000000000000, 0.0000000000000000000, 1.000000000000000000 ) ) ;
#34 = EDGE_LOOP ( 'NONE', ( #151, #69, #211, #91 ) ) ;
#35 = AXIS2_PLACEMENT_3D ( 'NONE', #17, #175, #40 ) ;
#36 = ORIENTED_EDGE ( 'NONE', *, *, #137, .T. ) ;
#37 = CARTESIAN_POINT ( 'NONE',  ( 0.0000000000000000000, 0.0000000000000000000, -0.9999999999999995600 ) ) ;
#38 = DIRECTION ( 'NONE',  ( 0.3420201433256663800, 0.0000000000000000000, 0.9396926207859093200 ) ) ;
#39 = ORIENTED_EDGE ( 'NONE', *, *, #253, .F. ) ;
#40 = DIRECTION ( 'NONE',  ( 1.000000000000000000, 0.0000000000000000000, 0.0000000000000000000 ) ) ;
#41 = ORIENTED_EDGE ( 'NONE', *, *, #74, .F. ) ;
#42 = EDGE_CURVE ( 'NONE', #100, #263, #258, .T. ) ;
#43 = DIRECTION ( 'NONE',  ( 1.000000000000000000, 0.0000000000000000000, 0.0000000000000000000 ) ) ;
#44 = AXIS2_PLACEMENT_3D ( 'NONE', #215, #76, #244 ) ;
#45 = DIRECTION ( 'NONE',  ( -0.0000000000000000000, -0.0000000000000000000, 1.000000000000000000 ) ) ;
#46 = LINE ( 'NONE', #255, #167 ) ;
#47 = ORIENTED_EDGE ( 'NONE', *, *, #88, .F. ) ;
#48 = AXIS2_PLACEMENT_3D ( 'NONE', #19, #155, #199 ) ;
#49 = CARTESIAN_POINT ( 'NONE',  ( -35.89999999999999900, 4.396482008938998300E-015, -3.000000000000000000 ) ) ;
#50 = ORIENTED_EDGE ( 'NONE', *, *, #276, .F. ) ;
#51 = CARTESIAN_POINT ( 'NONE',  ( 35.89999999999999900, 0.0000000000000000000, -3.000000000000000000 ) ) ;
#52 = PRODUCT_CONTEXT ( 'NONE', #246, 'mechanical' ) ;
#53 = VECTOR ( 'NONE', #196, 1000.000000000000000 ) ;
#54 = ORIENTED_EDGE ( 'NONE', *, *, #42, .F. ) ;
#55 = FACE_OUTER_BOUND ( 'NONE', #34, .T. ) ;
#56 = VECTOR ( 'NONE', #294, 1000.000000000000000 ) ;
#57 = CARTESIAN_POINT ( 'NONE',  ( 39.05500000000000000, 0.0000000000000000000, 0.0000000000000000000 ) ) ;
#58 = DIRECTION ( 'NONE',  ( -0.0000000000000000000, -0.0000000000000000000, 1.000000000000000000 ) ) ;
#59 = VECTOR ( 'NONE', #173, 1000.000000000000000 ) ;
#60 = DIRECTION ( 'NONE',  ( -0.0000000000000000000, -0.0000000000000000000, 1.000000000000000000 ) ) ;
#61 = DIRECTION ( 'NONE',  ( 1.000000000000000000, 0.0000000000000000000, 0.0000000000000000000 ) ) ;
#62 = VERTEX_POINT ( 'NONE', #257 ) ;
#63 = AXIS2_PLACEMENT_3D ( 'NONE', #227, #249, #284 ) ;
#64 = CARTESIAN_POINT ( 'NONE',  ( 0.0000000000000000000, 0.0000000000000000000, 0.0000000000000000000 ) ) ;
#65 = CARTESIAN_POINT ( 'NONE',  ( 0.0000000000000000000, 0.0000000000000000000, -3.000000000000000000 ) ) ;
#66 = CIRCLE ( 'NONE', #302, 39.05500000000000000 ) ;
#67 = CARTESIAN_POINT ( 'NONE',  ( 0.0000000000000000000, 0.0000000000000000000, -3.000000000000000000 ) ) ;
#68 = FACE_OUTER_BOUND ( 'NONE', #204, .T. ) ;
#69 = ORIENTED_EDGE ( 'NONE', *, *, #88, .T. ) ;
#70 = EDGE_LOOP ( 'NONE', ( #291, #134 ) ) ;
#71 = FACE_OUTER_BOUND ( 'NONE', #231, .T. ) ;
#72 = LINE ( 'NONE', #143, #56 ) ;
#73 = SURFACE_SIDE_STYLE ('',( #254 ) ) ;
#74 = EDGE_CURVE ( 'NONE', #263, #256, #66, .T. ) ;
#75 = EDGE_CURVE ( 'NONE', #62, #256, #174, .T. ) ;
#76 = DIRECTION ( 'NONE',  ( -0.0000000000000000000, -0.0000000000000000000, 1.000000000000000000 ) ) ;
#77 =( GEOMETRIC_REPRESENTATION_CONTEXT ( 3 ) GLOBAL_UNCERTAINTY_ASSIGNED_CONTEXT ( ( #169 ) ) GLOBAL_UNIT_ASSIGNED_CONTEXT ( ( #189, #30, #190 ) ) REPRESENTATION_CONTEXT ( 'NONE', 'WORKASPACE' ) );
#78 = APPLICATION_PROTOCOL_DEFINITION ( 'draft international standard', 'automotive_design', 1998, #220 ) ;
#79 = UNCERTAINTY_MEASURE_WITH_UNIT (LENGTH_MEASURE( 1.000000000000000100E-005 ), #299, 'distance_accuracy_value', 'NONE');
#80 = EDGE_LOOP ( 'NONE', ( #36, #223 ) ) ;
#81 = AXIS2_PLACEMENT_3D ( 'NONE', #158, #105, #282 ) ;
#82 = DIRECTION ( 'NONE',  ( 1.000000000000000000, 0.0000000000000000000, 0.0000000000000000000 ) ) ;
#83 = DIRECTION ( 'NONE',  ( 1.000000000000000000, 0.0000000000000000000, 0.0000000000000000000 ) ) ;
#84 = ADVANCED_FACE ( 'NONE', ( #311 ), #300, .T. ) ;
#85 = CARTESIAN_POINT ( 'NONE',  ( 41.20000000000000300, 0.0000000000000000000, 0.0000000000000000000 ) ) ;
#86 = ORIENTED_EDGE ( 'NONE', *, *, #103, .T. ) ;
#87 = DIRECTION ( 'NONE',  ( -0.0000000000000000000, -0.0000000000000000000, 1.000000000000000000 ) ) ;
#88 = EDGE_CURVE ( 'NONE', #288, #149, #46, .T. ) ;
#89 = CARTESIAN_POINT ( 'NONE',  ( 0.0000000000000000000, 0.0000000000000000000, 0.0000000000000000000 ) ) ;
#90 = AXIS2_PLACEMENT_3D ( 'NONE', #97, #273, #122 ) ;
#91 = ORIENTED_EDGE ( 'NONE', *, *, #202, .F. ) ;
#92 = DIRECTION ( 'NONE',  ( 1.000000000000000000, 0.0000000000000000000, 0.0000000000000000000 ) ) ;
#93 = DIRECTION ( 'NONE',  ( -0.0000000000000000000, -0.0000000000000000000, 1.000000000000000000 ) ) ;
#94 = EDGE_LOOP ( 'NONE', ( #164, #50, #130, #251 ) ) ;
#95 = AXIS2_PLACEMENT_3D ( 'NONE', #229, #261, #61 ) ;
#96 =( LENGTH_UNIT ( ) NAMED_UNIT ( * ) SI_UNIT ( .MILLI., .METRE. ) );
#97 = CARTESIAN_POINT ( 'NONE',  ( -35.89999999999999900, 0.0000000000000000000, -0.9999999999999997800 ) ) ;
#98 = VECTOR ( 'NONE', #260, 1000.000000000000100 ) ;
#99 = FILL_AREA_STYLE ('',( #297 ) ) ;
#100 = VERTEX_POINT ( 'NONE', #156 ) ;
#101 = EDGE_LOOP ( 'NONE', ( #12, #267, #183, #205 ) ) ;
#102 = CARTESIAN_POINT ( 'NONE',  ( 0.0000000000000000000, 0.0000000000000000000, -3.000000000000000000 ) ) ;
#103 = EDGE_CURVE ( 'NONE', #256, #263, #306, .T. ) ;
#104 = DIRECTION ( 'NONE',  ( -0.0000000000000000000, -0.0000000000000000000, 1.000000000000000000 ) ) ;
#105 = DIRECTION ( 'NONE',  ( -0.0000000000000000000, -0.0000000000000000000, 1.000000000000000000 ) ) ;
#106 = CIRCLE ( 'NONE', #35, 35.89999999999999900 ) ;
#107 = CARTESIAN_POINT ( 'NONE',  ( -40.10808929720140300, 0.0000000000000000000, -3.000000000000000000 ) ) ;
#108 = PRODUCT_DEFINITION_SHAPE ( 'NONE', 'NONE',  #236 ) ;
#109 = CARTESIAN_POINT ( 'NONE',  ( -40.10808929720140300, 4.978684565130243100E-015, -3.000000000000000000 ) ) ;
#110 = PRESENTATION_STYLE_ASSIGNMENT (( #124 ) ) ;
#111 = VERTEX_POINT ( 'NONE', #226 ) ;
#112 = CYLINDRICAL_SURFACE ( 'NONE', #224, 35.89999999999999900 ) ;
#113 = AXIS2_PLACEMENT_3D ( 'NONE', #67, #45, #281 ) ;
#114 = DIRECTION ( 'NONE',  ( 1.000000000000000000, 0.0000000000000000000, 0.0000000000000000000 ) ) ;
#115 = VECTOR ( 'NONE', #38, 1000.000000000000100 ) ;
#116 = CONICAL_SURFACE ( 'NONE', #287, 40.10808929720140300, 0.3490658503988634000 ) ;
#117 = EDGE_CURVE ( 'NONE', #145, #111, #141, .T. ) ;
#118 = VERTEX_POINT ( 'NONE', #85 ) ;
#119 =( NAMED_UNIT ( * ) SI_UNIT ( $, .STERADIAN. ) SOLID_ANGLE_UNIT ( ) );
#120 = EDGE_CURVE ( 'NONE', #149, #239, #106, .T. ) ;
#121 = ADVANCED_FACE ( 'NONE', ( #207 ), #147, .F. ) ;
#122 = DIRECTION ( 'NONE',  ( -1.000000000000000000, 0.0000000000000000000, -0.0000000000000000000 ) ) ;
#123 = STYLED_ITEM ( 'NONE', ( #110 ), #293 ) ;
#124 = SURFACE_STYLE_USAGE ( .BOTH. , #274 ) ;
#125 = FACE_OUTER_BOUND ( 'NONE', #101, .T. ) ;
#126 = FACE_OUTER_BOUND ( 'NONE', #18, .T. ) ;
#127 = ORIENTED_EDGE ( 'NONE', *, *, #245, .F. ) ;
#128 = CYLINDRICAL_SURFACE ( 'NONE', #95, 39.05500000000000000 ) ;
#129 = AXIS2_PLACEMENT_3D ( 'NONE', #65, #234, #43 ) ;
#130 = ORIENTED_EDGE ( 'NONE', *, *, #253, .T. ) ;
#131 = DIRECTION ( 'NONE',  ( 1.000000000000000000, 0.0000000000000000000, 0.0000000000000000000 ) ) ;
#132 = ADVANCED_FACE ( 'NONE', ( #31 ), #128, .T. ) ;
#133 = FACE_BOUND ( 'NONE', #70, .T. ) ;
#134 = ORIENTED_EDGE ( 'NONE', *, *, #120, .F. ) ;
#135 = EDGE_CURVE ( 'NONE', #27, #145, #237, .T. ) ;
#136 = EDGE_LOOP ( 'NONE', ( #47, #272, #160, #193 ) ) ;
#137 = EDGE_CURVE ( 'NONE', #208, #288, #10, .T. ) ;
#138 = PRESENTATION_LAYER_ASSIGNMENT (  '', '', ( #123 ) ) ;
#139 = CLOSED_SHELL ( 'NONE', ( #32, #186, #216, #201, #121, #298, #132, #20, #84, #214 ) ) ;
#140 = UNCERTAINTY_MEASURE_WITH_UNIT (LENGTH_MEASURE( 1.000000000000000100E-005 ), #96, 'distance_accuracy_value', 'NONE');
#141 = LINE ( 'NONE', #16, #98 ) ;
#142 = DIRECTION ( 'NONE',  ( -0.0000000000000000000, -0.0000000000000000000, 1.000000000000000000 ) ) ;
#143 = CARTESIAN_POINT ( 'NONE',  ( 41.20000000000000300, 0.0000000000000000000, 0.0000000000000000000 ) ) ;
#144 = AXIS2_PLACEMENT_3D ( 'NONE', #304, #285, #312 ) ;
#145 = VERTEX_POINT ( 'NONE', #109 ) ;
#146 = CARTESIAN_POINT ( 'NONE',  ( 0.0000000000000000000, 0.0000000000000000000, 0.0000000000000000000 ) ) ;
#147 = CYLINDRICAL_SURFACE ( 'NONE', #81, 35.89999999999999900 ) ;
#148 =( NAMED_UNIT ( * ) PLANE_ANGLE_UNIT ( ) SI_UNIT ( $, .RADIAN. ) );
#149 = VERTEX_POINT ( 'NONE', #159 ) ;
#150 = EDGE_CURVE ( 'NONE', #145, #27, #184, .T. ) ;
#151 = ORIENTED_EDGE ( 'NONE', *, *, #152, .F. ) ;
#152 = EDGE_CURVE ( 'NONE', #288, #208, #280, .T. ) ;
#153 = DIRECTION ( 'NONE',  ( -0.0000000000000000000, -0.0000000000000000000, 1.000000000000000000 ) ) ;
#154 = MECHANICAL_DESIGN_GEOMETRIC_PRESENTATION_REPRESENTATION (  '', ( #123 ), #166 ) ;
#155 = DIRECTION ( 'NONE',  ( -0.0000000000000000000, -0.0000000000000000000, 1.000000000000000000 ) ) ;
#156 = CARTESIAN_POINT ( 'NONE',  ( 39.05500000000000000, 0.0000000000000000000, -1.000229926742453700 ) ) ;
#157 = ORIENTED_EDGE ( 'NONE', *, *, #75, .F. ) ;
#158 = CARTESIAN_POINT ( 'NONE',  ( 0.0000000000000000000, 0.0000000000000000000, 0.0000000000000000000 ) ) ;
#159 = CARTESIAN_POINT ( 'NONE',  ( -35.89999999999999900, 4.396482008938998300E-015, -1.000000000000000000 ) ) ;
#160 = ORIENTED_EDGE ( 'NONE', *, *, #202, .T. ) ;
#161 = AXIS2_PLACEMENT_3D ( 'NONE', #313, #22, #235 ) ;
#162 = ORIENTED_EDGE ( 'NONE', *, *, #42, .T. ) ;
#163 = EDGE_CURVE ( 'NONE', #239, #149, #225, .T. ) ;
#164 = ORIENTED_EDGE ( 'NONE', *, *, #209, .F. ) ;
#165 = DIRECTION ( 'NONE',  ( -0.0000000000000000000, -0.0000000000000000000, 1.000000000000000000 ) ) ;
#166 =( GEOMETRIC_REPRESENTATION_CONTEXT ( 3 ) GLOBAL_UNCERTAINTY_ASSIGNED_CONTEXT ( ( #79 ) ) GLOBAL_UNIT_ASSIGNED_CONTEXT ( ( #299, #148, #6 ) ) REPRESENTATION_CONTEXT ( 'NONE', 'WORKASPACE' ) );
#167 = VECTOR ( 'NONE', #153, 1000.000000000000000 ) ;
#168 = SURFACE_STYLE_FILL_AREA ( #99 ) ;
#169 = UNCERTAINTY_MEASURE_WITH_UNIT (LENGTH_MEASURE( 1.000000000000000100E-005 ), #189, 'distance_accuracy_value', 'NONE');
#170 = ORIENTED_EDGE ( 'NONE', *, *, #150, .F. ) ;
#171 = DIRECTION ( 'NONE',  ( -0.0000000000000000000, -0.0000000000000000000, 1.000000000000000000 ) ) ;
#172 = AXIS2_PLACEMENT_3D ( 'NONE', #89, #87, #180 ) ;
#173 = DIRECTION ( 'NONE',  ( -0.0000000000000000000, -0.0000000000000000000, 1.000000000000000000 ) ) ;
#174 = LINE ( 'NONE', #195, #53 ) ;
#175 = DIRECTION ( 'NONE',  ( -0.0000000000000000000, -0.0000000000000000000, 1.000000000000000000 ) ) ;
#176 = ORIENTED_EDGE ( 'NONE', *, *, #230, .F. ) ;
#177 = EDGE_CURVE ( 'NONE', #118, #111, #182, .T. ) ;
#178 = LINE ( 'NONE', #197, #115 ) ;
#179 = COLOUR_RGB ( '',0.3843137254901960500, 0.3843137254901960500, 0.3843137254901960500 ) ;
#180 = DIRECTION ( 'NONE',  ( 1.000000000000000000, 0.0000000000000000000, 0.0000000000000000000 ) ) ;
#181 = CARTESIAN_POINT ( 'NONE',  ( 35.89999999999999900, 0.0000000000000000000, 0.0000000000000000000 ) ) ;
#182 = CIRCLE ( 'NONE', #161, 41.20000000000000300 ) ;
#183 = ORIENTED_EDGE ( 'NONE', *, *, #177, .F. ) ;
#184 = CIRCLE ( 'NONE', #113, 40.10808929720140300 ) ;
#185 = CYLINDRICAL_SURFACE ( 'NONE', #279, 39.05500000000000000 ) ;
#186 = ADVANCED_FACE ( 'NONE', ( #126 ), #252, .F. ) ;
#187 = FILL_AREA_STYLE_COLOUR ( '', #179 ) ;
#188 = AXIS2_PLACEMENT_3D ( 'NONE', #4, #165, #25 ) ;
#189 =( LENGTH_UNIT ( ) NAMED_UNIT ( * ) SI_UNIT ( .MILLI., .METRE. ) );
#190 =( NAMED_UNIT ( * ) SI_UNIT ( $, .STERADIAN. ) SOLID_ANGLE_UNIT ( ) );
#191 = DIRECTION ( 'NONE',  ( 1.000000000000000000, 0.0000000000000000000, 0.0000000000000000000 ) ) ;
#192 = CIRCLE ( 'NONE', #188, 39.05500000000000000 ) ;
#193 = ORIENTED_EDGE ( 'NONE', *, *, #163, .T. ) ;
#194 = EDGE_CURVE ( 'NONE', #27, #118, #178, .T. ) ;
#195 = CARTESIAN_POINT ( 'NONE',  ( -39.05500000000000000, 4.782858074069987600E-015, 0.0000000000000000000 ) ) ;
#196 = DIRECTION ( 'NONE',  ( -0.0000000000000000000, -0.0000000000000000000, 1.000000000000000000 ) ) ;
#197 = CARTESIAN_POINT ( 'NONE',  ( 40.10808929720140300, 0.0000000000000000000, -3.000000000000000000 ) ) ;
#198 = DIRECTION ( 'NONE',  ( 1.000000000000000000, 0.0000000000000000000, 0.0000000000000000000 ) ) ;
#199 = DIRECTION ( 'NONE',  ( 1.000000000000000000, 0.0000000000000000000, 0.0000000000000000000 ) ) ;
#200 = CARTESIAN_POINT ( 'NONE',  ( 0.0000000000000000000, 0.0000000000000000000, -0.9999999999999995600 ) ) ;
#201 = ADVANCED_FACE ( 'NONE', ( #55 ), #112, .F. ) ;
#202 = EDGE_CURVE ( 'NONE', #208, #239, #9, .T. ) ;
#203 = PRODUCT ( '402DFL063-Z', '402DFL063-Z', '', ( #52 ) ) ;
#204 = EDGE_LOOP ( 'NONE', ( #222, #86 ) ) ;
#205 = ORIENTED_EDGE ( 'NONE', *, *, #194, .F. ) ;
#206 = ORIENTED_EDGE ( 'NONE', *, *, #209, .T. ) ;
#207 = FACE_OUTER_BOUND ( 'NONE', #136, .T. ) ;
#208 = VERTEX_POINT ( 'NONE', #51 ) ;
#209 = EDGE_CURVE ( 'NONE', #62, #111, #289, .T. ) ;
#210 = CARTESIAN_POINT ( 'NONE',  ( -39.05500000000000000, 4.782858074069987600E-015, -0.9999999999999995600 ) ) ;
#211 = ORIENTED_EDGE ( 'NONE', *, *, #120, .T. ) ;
#212 = FILL_AREA_STYLE ('',( #187 ) ) ;
#213 = DIRECTION ( 'NONE',  ( -0.0000000000000000000, -0.0000000000000000000, 1.000000000000000000 ) ) ;
#214 = ADVANCED_FACE ( 'NONE', ( #308, #233 ), #290, .F. ) ;
#215 = CARTESIAN_POINT ( 'NONE',  ( 0.0000000000000000000, 0.0000000000000000000, -1.000229926742453700 ) ) ;
#216 = ADVANCED_FACE ( 'NONE', ( #71 ), #185, .T. ) ;
#217 = DIRECTION ( 'NONE',  ( -0.9063077870366529300, 1.109906930436758000E-016, 0.4226182617406930000 ) ) ;
#218 = APPLICATION_PROTOCOL_DEFINITION ( 'draft international standard', 'automotive_design', 1998, #246 ) ;
#219 = AXIS2_PLACEMENT_3D ( 'NONE', #146, #33, #191 ) ;
#220 = APPLICATION_CONTEXT ( 'automotive_design' ) ;
#221 = ORIENTED_EDGE ( 'NONE', *, *, #245, .T. ) ;
#222 = ORIENTED_EDGE ( 'NONE', *, *, #74, .T. ) ;
#223 = ORIENTED_EDGE ( 'NONE', *, *, #152, .T. ) ;
#224 = AXIS2_PLACEMENT_3D ( 'NONE', #64, #266, #114 ) ;
#225 = CIRCLE ( 'NONE', #144, 35.89999999999999900 ) ;
#226 = CARTESIAN_POINT ( 'NONE',  ( -41.20000000000000300, 5.045544812487094900E-015, 0.0000000000000000000 ) ) ;
#227 = CARTESIAN_POINT ( 'NONE',  ( 0.0000000000000000000, 0.0000000000000000000, -3.000000000000000000 ) ) ;
#228 = DIRECTION ( 'NONE',  ( 1.000000000000000000, 0.0000000000000000000, 0.0000000000000000000 ) ) ;
#229 = CARTESIAN_POINT ( 'NONE',  ( 0.0000000000000000000, 0.0000000000000000000, 0.0000000000000000000 ) ) ;
#230 = EDGE_CURVE ( 'NONE', #111, #118, #264, .T. ) ;
#231 = EDGE_LOOP ( 'NONE', ( #8, #26, #41, #54 ) ) ;
#232 = FACE_OUTER_BOUND ( 'NONE', #94, .T. ) ;
#233 = FACE_BOUND ( 'NONE', #80, .T. ) ;
#234 = DIRECTION ( 'NONE',  ( -0.0000000000000000000, -0.0000000000000000000, 1.000000000000000000 ) ) ;
#235 = DIRECTION ( 'NONE',  ( 1.000000000000000000, 0.0000000000000000000, 0.0000000000000000000 ) ) ;
#236 = PRODUCT_DEFINITION ( 'UNKNOWN', '', #259, #250 ) ;
#237 = CIRCLE ( 'NONE', #48, 40.10808929720140300 ) ;
#238 = COLOUR_RGB ( '',0.3843137254901960500, 0.3843137254901960500, 0.3843137254901960500 ) ;
#239 = VERTEX_POINT ( 'NONE', #24 ) ;
#240 = VECTOR ( 'NONE', #213, 1000.000000000000000 ) ;
#241 = CARTESIAN_POINT ( 'NONE',  ( 0.0000000000000000000, 0.0000000000000000000, 0.0000000000000000000 ) ) ;
#242 = SURFACE_STYLE_USAGE ( .BOTH. , #73 ) ;
#243 = AXIS2_PLACEMENT_3D ( 'NONE', #107, #292, #92 ) ;
#244 = DIRECTION ( 'NONE',  ( 1.000000000000000000, 0.0000000000000000000, 0.0000000000000000000 ) ) ;
#245 = EDGE_CURVE ( 'NONE', #62, #100, #192, .T. ) ;
#246 = APPLICATION_CONTEXT ( 'automotive_design' ) ;
#247 = VECTOR ( 'NONE', #217, 1000.000000000000000 ) ;
#248 = CONICAL_SURFACE ( 'NONE', #269, 41.20000000000000300, 1.134464013796321300 ) ;
#249 = DIRECTION ( 'NONE',  ( -0.0000000000000000000, -0.0000000000000000000, 1.000000000000000000 ) ) ;
#250 = PRODUCT_DEFINITION_CONTEXT ( 'detailed design', #220, 'design' ) ;
#251 = ORIENTED_EDGE ( 'NONE', *, *, #177, .T. ) ;
#252 = CONICAL_SURFACE ( 'NONE', #172, 41.20000000000000300, 1.134464013796321300 ) ;
#253 = EDGE_CURVE ( 'NONE', #100, #118, #72, .T. ) ;
#254 = SURFACE_STYLE_FILL_AREA ( #212 ) ;
#255 = CARTESIAN_POINT ( 'NONE',  ( -35.89999999999999900, 4.396482008938998300E-015, 0.0000000000000000000 ) ) ;
#256 = VERTEX_POINT ( 'NONE', #210 ) ;
#257 = CARTESIAN_POINT ( 'NONE',  ( -39.05500000000000000, 4.782858074069987600E-015, -1.000229926742453700 ) ) ;
#258 = LINE ( 'NONE', #57, #59 ) ;
#259 = PRODUCT_DEFINITION_FORMATION_WITH_SPECIFIED_SOURCE ( 'ANY', '', #203, .NOT_KNOWN. ) ;
#260 = DIRECTION ( 'NONE',  ( -0.3420201433256663800, 4.188538737676964000E-017, 0.9396926207859093200 ) ) ;
#261 = DIRECTION ( 'NONE',  ( -0.0000000000000000000, -0.0000000000000000000, 1.000000000000000000 ) ) ;
#262 = MANIFOLD_SOLID_BREP ( 'Rotation1', #139 ) ;
#263 = VERTEX_POINT ( 'NONE', #5 ) ;
#264 = CIRCLE ( 'NONE', #265, 41.20000000000000300 ) ;
#265 = AXIS2_PLACEMENT_3D ( 'NONE', #241, #93, #270 ) ;
#266 = DIRECTION ( 'NONE',  ( -0.0000000000000000000, -0.0000000000000000000, 1.000000000000000000 ) ) ;
#267 = ORIENTED_EDGE ( 'NONE', *, *, #117, .T. ) ;
#268 = CARTESIAN_POINT ( 'NONE',  ( 0.0000000000000000000, 0.0000000000000000000, 0.0000000000000000000 ) ) ;
#269 = AXIS2_PLACEMENT_3D ( 'NONE', #305, #104, #131 ) ;
#270 = DIRECTION ( 'NONE',  ( 1.000000000000000000, 0.0000000000000000000, 0.0000000000000000000 ) ) ;
#271 =( NAMED_UNIT ( * ) PLANE_ANGLE_UNIT ( ) SI_UNIT ( $, .RADIAN. ) );
#272 = ORIENTED_EDGE ( 'NONE', *, *, #137, .F. ) ;
#273 = DIRECTION ( 'NONE',  ( 0.0000000000000000000, 0.0000000000000000000, -1.000000000000000000 ) ) ;
#274 = SURFACE_SIDE_STYLE ('',( #168 ) ) ;
#275 = PRODUCT_RELATED_PRODUCT_CATEGORY ( 'part', '', ( #203 ) ) ;
#276 = EDGE_CURVE ( 'NONE', #100, #62, #11, .T. ) ;
#277 = ORIENTED_EDGE ( 'NONE', *, *, #194, .T. ) ;
#278 = DIRECTION ( 'NONE',  ( -0.0000000000000000000, -0.0000000000000000000, 1.000000000000000000 ) ) ;
#279 = AXIS2_PLACEMENT_3D ( 'NONE', #268, #142, #1 ) ;
#280 = CIRCLE ( 'NONE', #129, 35.89999999999999900 ) ;
#281 = DIRECTION ( 'NONE',  ( 1.000000000000000000, 0.0000000000000000000, 0.0000000000000000000 ) ) ;
#282 = DIRECTION ( 'NONE',  ( 1.000000000000000000, 0.0000000000000000000, 0.0000000000000000000 ) ) ;
#283 = ORIENTED_EDGE ( 'NONE', *, *, #230, .T. ) ;
#284 = DIRECTION ( 'NONE',  ( 1.000000000000000000, 0.0000000000000000000, 0.0000000000000000000 ) ) ;
#285 = DIRECTION ( 'NONE',  ( -0.0000000000000000000, -0.0000000000000000000, 1.000000000000000000 ) ) ;
#286 = SHAPE_DEFINITION_REPRESENTATION ( #108, #293 ) ;
#287 = AXIS2_PLACEMENT_3D ( 'NONE', #15, #58, #198 ) ;
#288 = VERTEX_POINT ( 'NONE', #49 ) ;
#289 = LINE ( 'NONE', #310, #247 ) ;
#290 = PLANE ( 'NONE',  #243 ) ;
#291 = ORIENTED_EDGE ( 'NONE', *, *, #163, .F. ) ;
#292 = DIRECTION ( 'NONE',  ( 0.0000000000000000000, -0.0000000000000000000, 1.000000000000000000 ) ) ;
#293 = ADVANCED_BREP_SHAPE_REPRESENTATION ( '402DFL063-Z', ( #262, #219 ), #77 ) ;
#294 = DIRECTION ( 'NONE',  ( 0.9063077870366529300, 0.0000000000000000000, 0.4226182617406930000 ) ) ;
#295 = EDGE_LOOP ( 'NONE', ( #307, #7, #277, #176 ) ) ;
#296 = STYLED_ITEM ( 'NONE', ( #3 ), #262 ) ;
#297 = FILL_AREA_STYLE_COLOUR ( '', #238 ) ;
#298 = ADVANCED_FACE ( 'NONE', ( #133, #68 ), #28, .F. ) ;
#299 =( LENGTH_UNIT ( ) NAMED_UNIT ( * ) SI_UNIT ( .MILLI., .METRE. ) );
#300 = CONICAL_SURFACE ( 'NONE', #2, 40.10808929720140300, 0.3490658503988634000 ) ;
#301 = ORIENTED_EDGE ( 'NONE', *, *, #103, .F. ) ;
#302 = AXIS2_PLACEMENT_3D ( 'NONE', #37, #171, #82 ) ;
#303 = CARTESIAN_POINT ( 'NONE',  ( 40.10808929720140300, 0.0000000000000000000, -3.000000000000000000 ) ) ;
#304 = CARTESIAN_POINT ( 'NONE',  ( 0.0000000000000000000, 0.0000000000000000000, -1.000000000000000000 ) ) ;
#305 = CARTESIAN_POINT ( 'NONE',  ( 0.0000000000000000000, 0.0000000000000000000, 0.0000000000000000000 ) ) ;
#306 = CIRCLE ( 'NONE', #21, 39.05500000000000000 ) ;
#307 = ORIENTED_EDGE ( 'NONE', *, *, #117, .F. ) ;
#308 = FACE_OUTER_BOUND ( 'NONE', #314, .T. ) ;
#309 = PRESENTATION_LAYER_ASSIGNMENT (  '', '', ( #296 ) ) ;
#310 = CARTESIAN_POINT ( 'NONE',  ( -41.20000000000000300, 5.045544812487094900E-015, 0.0000000000000000000 ) ) ;
#311 = FACE_OUTER_BOUND ( 'NONE', #295, .T. ) ;
#312 = DIRECTION ( 'NONE',  ( 1.000000000000000000, 0.0000000000000000000, 0.0000000000000000000 ) ) ;
#313 = CARTESIAN_POINT ( 'NONE',  ( 0.0000000000000000000, 0.0000000000000000000, 0.0000000000000000000 ) ) ;
#314 = EDGE_LOOP ( 'NONE', ( #14, #170 ) ) ;
ENDSEC;
END-ISO-10303-21;
