ISO-10303-21;
HEADER;
FILE_DESCRIPTION (( 'STEP AP214' ),
    '1' );
FILE_NAME ('106DOR040-S1.step',
    '2017-07-06T09:24:38',
    ( 'install' ),
    ( '' ),
    'SwSTEP 2.0',
    'SolidWorks 2015',
    '' );
FILE_SCHEMA (( 'AUTOMOTIVE_DESIGN' ));
ENDSEC;

DATA;
#1 = ADVANCED_FACE ( 'NONE', ( #48 ), #125, .T. ) ;
#2 = ORIENTED_EDGE ( 'NONE', *, *, #27, .T. ) ;
#3 = SHAPE_DEFINITION_REPRESENTATION ( #132, #7 ) ;
#4 = EDGE_LOOP ( 'NONE', ( #148, #67, #121, #52 ) ) ;
#5 = DIRECTION ( 'NONE',  ( 1.000000000000000000, 0.0000000000000000000, 0.0000000000000000000 ) ) ;
#6 = DIRECTION ( 'NONE',  ( -0.0000000000000000000, -0.0000000000000000000, 1.000000000000000000 ) ) ;
#7 = ADVANCED_BREP_SHAPE_REPRESENTATION ( '106DOR040-S1', ( #77, #60 ), #149 ) ;
#8 = DIRECTION ( 'NONE',  ( 1.224646799147353200E-016, 1.000000000000000000, 0.0000000000000000000 ) ) ;
#9 = CARTESIAN_POINT ( 'NONE',  ( -23.50000000000000000, 2.877919977996280300E-015, 0.0000000000000000000 ) ) ;
#10 = EDGE_CURVE ( 'NONE', #111, #82, #139, .T. ) ;
#11 = CARTESIAN_POINT ( 'NONE',  ( 21.00000000000000000, 0.0000000000000000000, -3.061616997868381700E-016 ) ) ;
#12 = APPLICATION_CONTEXT ( 'automotive_design' ) ;
#13 = FACE_OUTER_BOUND ( 'NONE', #146, .T. ) ;
#14 = CIRCLE ( 'NONE', #94, 26.00000000000000000 ) ;
#15 = EDGE_CURVE ( 'NONE', #25, #29, #14, .T. ) ;
#16 = STYLED_ITEM ( 'NONE', ( #73 ), #7 ) ;
#17 = CARTESIAN_POINT ( 'NONE',  ( -26.00000000000000000, 3.184081677783118200E-015, 0.0000000000000000000 ) ) ;
#18 = ORIENTED_EDGE ( 'NONE', *, *, #90, .T. ) ;
#19 = FILL_AREA_STYLE_COLOUR ( '', #136 ) ;
#20 = FILL_AREA_STYLE ('',( #19 ) ) ;
#21 = STYLED_ITEM ( 'NONE', ( #68 ), #77 ) ;
#22 = DIRECTION ( 'NONE',  ( -1.000000000000000000, 1.224646799147352700E-016, 0.0000000000000000000 ) ) ;
#23 = AXIS2_PLACEMENT_3D ( 'NONE', #78, #8, #89 ) ;
#24 = DIRECTION ( 'NONE',  ( 0.0000000000000000000, -1.000000000000000000, 0.0000000000000000000 ) ) ;
#25 = VERTEX_POINT ( 'NONE', #62 ) ;
#26 = UNCERTAINTY_MEASURE_WITH_UNIT (LENGTH_MEASURE( 1.000000000000000100E-005 ), #41, 'distance_accuracy_value', 'NONE');
#27 = EDGE_CURVE ( 'NONE', #29, #25, #70, .T. ) ;
#28 = PRESENTATION_LAYER_ASSIGNMENT (  '', '', ( #16 ) ) ;
#29 = VERTEX_POINT ( 'NONE', #17 ) ;
#30 = TOROIDAL_SURFACE ( 'NONE', #133, 23.50000000000000000, 2.499999999999998700 ) ;
#31 =( NAMED_UNIT ( * ) PLANE_ANGLE_UNIT ( ) SI_UNIT ( $, .RADIAN. ) );
#32 = ORIENTED_EDGE ( 'NONE', *, *, #27, .F. ) ;
#33 = CARTESIAN_POINT ( 'NONE',  ( 0.0000000000000000000, 0.0000000000000000000, 0.0000000000000000000 ) ) ;
#34 = SURFACE_STYLE_USAGE ( .BOTH. , #101 ) ;
#35 = SURFACE_SIDE_STYLE ('',( #109 ) ) ;
#36 = DIRECTION ( 'NONE',  ( 1.000000000000000000, 0.0000000000000000000, 0.0000000000000000000 ) ) ;
#37 = MECHANICAL_DESIGN_GEOMETRIC_PRESENTATION_REPRESENTATION (  '', ( #16 ), #42 ) ;
#38 = PRESENTATION_LAYER_ASSIGNMENT (  '', '', ( #21 ) ) ;
#39 = PRODUCT_CONTEXT ( 'NONE', #12, 'mechanical' ) ;
#40 = SURFACE_STYLE_FILL_AREA ( #20 ) ;
#41 =( LENGTH_UNIT ( ) NAMED_UNIT ( * ) SI_UNIT ( .MILLI., .METRE. ) );
#42 =( GEOMETRIC_REPRESENTATION_CONTEXT ( 3 ) GLOBAL_UNCERTAINTY_ASSIGNED_CONTEXT ( ( #26 ) ) GLOBAL_UNIT_ASSIGNED_CONTEXT ( ( #41, #31, #112 ) ) REPRESENTATION_CONTEXT ( 'NONE', 'WORKASPACE' ) );
#43 = DIRECTION ( 'NONE',  ( 1.000000000000000000, 0.0000000000000000000, 0.0000000000000000000 ) ) ;
#44 = PRODUCT_DEFINITION_CONTEXT ( 'detailed design', #119, 'design' ) ;
#45 = CIRCLE ( 'NONE', #72, 2.499999999999998700 ) ;
#46 =( NAMED_UNIT ( * ) PLANE_ANGLE_UNIT ( ) SI_UNIT ( $, .RADIAN. ) );
#47 = FILL_AREA_STYLE_COLOUR ( '', #144 ) ;
#48 = FACE_OUTER_BOUND ( 'NONE', #86, .T. ) ;
#49 = ADVANCED_FACE ( 'NONE', ( #13 ), #104, .T. ) ;
#50 = ORIENTED_EDGE ( 'NONE', *, *, #97, .T. ) ;
#51 = AXIS2_PLACEMENT_3D ( 'NONE', #127, #99, #88 ) ;
#52 = ORIENTED_EDGE ( 'NONE', *, *, #10, .F. ) ;
#53 = DIRECTION ( 'NONE',  ( 0.0000000000000000000, -1.000000000000000000, 0.0000000000000000000 ) ) ;
#54 = TOROIDAL_SURFACE ( 'NONE', #158, 23.50000000000000000, 2.499999999999998700 ) ;
#55 = EDGE_CURVE ( 'NONE', #25, #111, #45, .T. ) ;
#56 = ORIENTED_EDGE ( 'NONE', *, *, #97, .F. ) ;
#57 = CIRCLE ( 'NONE', #116, 2.499999999999998700 ) ;
#58 = ORIENTED_EDGE ( 'NONE', *, *, #55, .T. ) ;
#59 = EDGE_CURVE ( 'NONE', #29, #82, #100, .T. ) ;
#60 = AXIS2_PLACEMENT_3D ( 'NONE', #117, #61, #106 ) ;
#61 = DIRECTION ( 'NONE',  ( 0.0000000000000000000, 0.0000000000000000000, 1.000000000000000000 ) ) ;
#62 = CARTESIAN_POINT ( 'NONE',  ( 26.00000000000000000, 0.0000000000000000000, 0.0000000000000000000 ) ) ;
#63 = CARTESIAN_POINT ( 'NONE',  ( 0.0000000000000000000, 0.0000000000000000000, 0.0000000000000000000 ) ) ;
#64 = DIRECTION ( 'NONE',  ( -0.0000000000000000000, -0.0000000000000000000, 1.000000000000000000 ) ) ;
#65 = DIRECTION ( 'NONE',  ( -0.0000000000000000000, -0.0000000000000000000, 1.000000000000000000 ) ) ;
#66 =( NAMED_UNIT ( * ) PLANE_ANGLE_UNIT ( ) SI_UNIT ( $, .RADIAN. ) );
#67 = ORIENTED_EDGE ( 'NONE', *, *, #15, .T. ) ;
#68 = PRESENTATION_STYLE_ASSIGNMENT (( #34 ) ) ;
#69 = PRODUCT_DEFINITION ( 'UNKNOWN', '', #81, #44 ) ;
#70 = CIRCLE ( 'NONE', #83, 26.00000000000000000 ) ;
#71 = SURFACE_STYLE_USAGE ( .BOTH. , #35 ) ;
#72 = AXIS2_PLACEMENT_3D ( 'NONE', #128, #53, #140 ) ;
#73 = PRESENTATION_STYLE_ASSIGNMENT (( #71 ) ) ;
#74 = CARTESIAN_POINT ( 'NONE',  ( 0.0000000000000000000, 0.0000000000000000000, -3.061616997868381700E-016 ) ) ;
#75 = ORIENTED_EDGE ( 'NONE', *, *, #15, .F. ) ;
#76 = DIRECTION ( 'NONE',  ( 1.000000000000000000, 0.0000000000000000000, 0.0000000000000000000 ) ) ;
#77 = MANIFOLD_SOLID_BREP ( 'Rotation1', #150 ) ;
#78 = CARTESIAN_POINT ( 'NONE',  ( -23.50000000000000000, 2.877919977996280300E-015, 0.0000000000000000000 ) ) ;
#79 = CARTESIAN_POINT ( 'NONE',  ( 0.0000000000000000000, 0.0000000000000000000, 0.0000000000000000000 ) ) ;
#80 = FILL_AREA_STYLE ('',( #47 ) ) ;
#81 = PRODUCT_DEFINITION_FORMATION_WITH_SPECIFIED_SOURCE ( 'ANY', '', #134, .NOT_KNOWN. ) ;
#82 = VERTEX_POINT ( 'NONE', #152 ) ;
#83 = AXIS2_PLACEMENT_3D ( 'NONE', #63, #151, #76 ) ;
#84 = ORIENTED_EDGE ( 'NONE', *, *, #10, .T. ) ;
#85 = PRODUCT_RELATED_PRODUCT_CATEGORY ( 'part', '', ( #134 ) ) ;
#86 = EDGE_LOOP ( 'NONE', ( #113, #2, #58, #56 ) ) ;
#87 = DIRECTION ( 'NONE',  ( 1.000000000000000000, 0.0000000000000000000, 0.0000000000000000000 ) ) ;
#88 = DIRECTION ( 'NONE',  ( 1.000000000000000000, 0.0000000000000000000, 0.0000000000000000000 ) ) ;
#89 = DIRECTION ( 'NONE',  ( -1.000000000000000000, 1.224646799147352700E-016, 0.0000000000000000000 ) ) ;
#90 = EDGE_CURVE ( 'NONE', #82, #29, #57, .T. ) ;
#91 = FACE_OUTER_BOUND ( 'NONE', #95, .T. ) ;
#92 = DIRECTION ( 'NONE',  ( 1.224646799147353200E-016, 1.000000000000000000, 0.0000000000000000000 ) ) ;
#93 = CARTESIAN_POINT ( 'NONE',  ( 23.50000000000000000, 0.0000000000000000000, 0.0000000000000000000 ) ) ;
#94 = AXIS2_PLACEMENT_3D ( 'NONE', #33, #114, #43 ) ;
#95 = EDGE_LOOP ( 'NONE', ( #32, #118, #50, #131 ) ) ;
#96 = ADVANCED_FACE ( 'NONE', ( #91 ), #30, .T. ) ;
#97 = EDGE_CURVE ( 'NONE', #82, #111, #153, .T. ) ;
#98 = MECHANICAL_DESIGN_GEOMETRIC_PRESENTATION_REPRESENTATION (  '', ( #21 ), #108 ) ;
#99 = DIRECTION ( 'NONE',  ( -0.0000000000000000000, -0.0000000000000000000, 1.000000000000000000 ) ) ;
#100 = CIRCLE ( 'NONE', #23, 2.499999999999998700 ) ;
#101 = SURFACE_SIDE_STYLE ('',( #40 ) ) ;
#102 = DIRECTION ( 'NONE',  ( 1.000000000000000000, 0.0000000000000000000, 0.0000000000000000000 ) ) ;
#103 = DIRECTION ( 'NONE',  ( 0.0000000000000000000, 0.0000000000000000000, -1.000000000000000000 ) ) ;
#104 = TOROIDAL_SURFACE ( 'NONE', #51, 23.50000000000000000, 2.499999999999998700 ) ;
#105 = UNCERTAINTY_MEASURE_WITH_UNIT (LENGTH_MEASURE( 1.000000000000000100E-005 ), #115, 'distance_accuracy_value', 'NONE');
#106 = DIRECTION ( 'NONE',  ( 1.000000000000000000, 0.0000000000000000000, 0.0000000000000000000 ) ) ;
#107 = EDGE_CURVE ( 'NONE', #111, #25, #122, .T. ) ;
#108 =( GEOMETRIC_REPRESENTATION_CONTEXT ( 3 ) GLOBAL_UNCERTAINTY_ASSIGNED_CONTEXT ( ( #105 ) ) GLOBAL_UNIT_ASSIGNED_CONTEXT ( ( #115, #46, #129 ) ) REPRESENTATION_CONTEXT ( 'NONE', 'WORKASPACE' ) );
#109 = SURFACE_STYLE_FILL_AREA ( #80 ) ;
#110 = ADVANCED_FACE ( 'NONE', ( #120 ), #54, .T. ) ;
#111 = VERTEX_POINT ( 'NONE', #11 ) ;
#112 =( NAMED_UNIT ( * ) SI_UNIT ( $, .STERADIAN. ) SOLID_ANGLE_UNIT ( ) );
#113 = ORIENTED_EDGE ( 'NONE', *, *, #59, .F. ) ;
#114 = DIRECTION ( 'NONE',  ( -0.0000000000000000000, -0.0000000000000000000, 1.000000000000000000 ) ) ;
#115 =( LENGTH_UNIT ( ) NAMED_UNIT ( * ) SI_UNIT ( .MILLI., .METRE. ) );
#116 = AXIS2_PLACEMENT_3D ( 'NONE', #9, #92, #22 ) ;
#117 = CARTESIAN_POINT ( 'NONE',  ( 0.0000000000000000000, 0.0000000000000000000, 0.0000000000000000000 ) ) ;
#118 = ORIENTED_EDGE ( 'NONE', *, *, #90, .F. ) ;
#119 = APPLICATION_CONTEXT ( 'automotive_design' ) ;
#120 = FACE_OUTER_BOUND ( 'NONE', #4, .T. ) ;
#121 = ORIENTED_EDGE ( 'NONE', *, *, #59, .T. ) ;
#122 = CIRCLE ( 'NONE', #143, 2.499999999999998700 ) ;
#123 = AXIS2_PLACEMENT_3D ( 'NONE', #142, #65, #154 ) ;
#124 = AXIS2_PLACEMENT_3D ( 'NONE', #138, #126, #5 ) ;
#125 = TOROIDAL_SURFACE ( 'NONE', #124, 23.50000000000000000, 2.499999999999998700 ) ;
#126 = DIRECTION ( 'NONE',  ( -0.0000000000000000000, -0.0000000000000000000, 1.000000000000000000 ) ) ;
#127 = CARTESIAN_POINT ( 'NONE',  ( 0.0000000000000000000, 0.0000000000000000000, 0.0000000000000000000 ) ) ;
#128 = CARTESIAN_POINT ( 'NONE',  ( 23.50000000000000000, 0.0000000000000000000, 0.0000000000000000000 ) ) ;
#129 =( NAMED_UNIT ( * ) SI_UNIT ( $, .STERADIAN. ) SOLID_ANGLE_UNIT ( ) );
#130 = DIRECTION ( 'NONE',  ( -0.0000000000000000000, -0.0000000000000000000, 1.000000000000000000 ) ) ;
#131 = ORIENTED_EDGE ( 'NONE', *, *, #107, .T. ) ;
#132 = PRODUCT_DEFINITION_SHAPE ( 'NONE', 'NONE',  #69 ) ;
#133 = AXIS2_PLACEMENT_3D ( 'NONE', #141, #64, #102 ) ;
#134 = PRODUCT ( '106DOR040-S1', '106DOR040-S1', '', ( #39 ) ) ;
#135 = UNCERTAINTY_MEASURE_WITH_UNIT (LENGTH_MEASURE( 1.000000000000000100E-005 ), #145, 'distance_accuracy_value', 'NONE');
#136 = COLOUR_RGB ( '',0.3843137254901960500, 0.3843137254901960500, 0.3843137254901960500 ) ;
#137 = APPLICATION_PROTOCOL_DEFINITION ( 'draft international standard', 'automotive_design', 1998, #119 ) ;
#138 = CARTESIAN_POINT ( 'NONE',  ( 0.0000000000000000000, 0.0000000000000000000, 0.0000000000000000000 ) ) ;
#139 = CIRCLE ( 'NONE', #147, 21.00000000000000000 ) ;
#140 = DIRECTION ( 'NONE',  ( 0.0000000000000000000, 0.0000000000000000000, -1.000000000000000000 ) ) ;
#141 = CARTESIAN_POINT ( 'NONE',  ( 0.0000000000000000000, 0.0000000000000000000, 0.0000000000000000000 ) ) ;
#142 = CARTESIAN_POINT ( 'NONE',  ( 0.0000000000000000000, 0.0000000000000000000, -3.061616997868381700E-016 ) ) ;
#143 = AXIS2_PLACEMENT_3D ( 'NONE', #93, #24, #103 ) ;
#144 = COLOUR_RGB ( '',0.3843137254901960500, 0.3843137254901960500, 0.3843137254901960500 ) ;
#145 =( LENGTH_UNIT ( ) NAMED_UNIT ( * ) SI_UNIT ( .MILLI., .METRE. ) );
#146 = EDGE_LOOP ( 'NONE', ( #75, #156, #84, #18 ) ) ;
#147 = AXIS2_PLACEMENT_3D ( 'NONE', #74, #6, #87 ) ;
#148 = ORIENTED_EDGE ( 'NONE', *, *, #55, .F. ) ;
#149 =( GEOMETRIC_REPRESENTATION_CONTEXT ( 3 ) GLOBAL_UNCERTAINTY_ASSIGNED_CONTEXT ( ( #135 ) ) GLOBAL_UNIT_ASSIGNED_CONTEXT ( ( #145, #66, #155 ) ) REPRESENTATION_CONTEXT ( 'NONE', 'WORKASPACE' ) );
#150 = CLOSED_SHELL ( 'NONE', ( #1, #110, #49, #96 ) ) ;
#151 = DIRECTION ( 'NONE',  ( -0.0000000000000000000, -0.0000000000000000000, 1.000000000000000000 ) ) ;
#152 = CARTESIAN_POINT ( 'NONE',  ( -21.00000000000000000, 2.571758278209442100E-015, -3.061616997868381700E-016 ) ) ;
#153 = CIRCLE ( 'NONE', #123, 21.00000000000000000 ) ;
#154 = DIRECTION ( 'NONE',  ( 1.000000000000000000, 0.0000000000000000000, 0.0000000000000000000 ) ) ;
#155 =( NAMED_UNIT ( * ) SI_UNIT ( $, .STERADIAN. ) SOLID_ANGLE_UNIT ( ) );
#156 = ORIENTED_EDGE ( 'NONE', *, *, #107, .F. ) ;
#157 = APPLICATION_PROTOCOL_DEFINITION ( 'draft international standard', 'automotive_design', 1998, #12 ) ;
#158 = AXIS2_PLACEMENT_3D ( 'NONE', #79, #130, #36 ) ;
ENDSEC;
END-ISO-10303-21;
