ISO-10303-21;
HEADER;
FILE_DESCRIPTION (( 'STEP AP214' ),
    '1' );
FILE_NAME ('490DFL063-S10.stp',
    '2017-10-11T10:14:49',
    ( '' ),
    ( '' ),
    'SwSTEP 2.0',
    'SolidWorks 2015',
    '' );
FILE_SCHEMA (( 'AUTOMOTIVE_DESIGN' ));
ENDSEC;

DATA;
#1 = CARTESIAN_POINT ( 'NONE',  ( 0.0000000000000000000, 0.0000000000000000000, 0.0000000000000000000 ) ) ;
#2 = EDGE_CURVE ( 'NONE', #135, #90, #147, .T. ) ;
#3 = DIRECTION ( 'NONE',  ( 0.0000000000000000000, 0.0000000000000000000, 1.000000000000000000 ) ) ;
#4 = FILL_AREA_STYLE ('',( #72 ) ) ;
#5 = CARTESIAN_POINT ( 'NONE',  ( 0.0000000000000000000, 0.0000000000000000000, -2.000000000000000000 ) ) ;
#6 = SURFACE_SIDE_STYLE ('',( #148 ) ) ;
#7 = DIRECTION ( 'NONE',  ( 0.0000000000000000000, 0.0000000000000000000, 1.000000000000000000 ) ) ;
#8 = CARTESIAN_POINT ( 'NONE',  ( 41.20000000000001000, 0.0000000000000000000, -2.000000000000000000 ) ) ;
#9 = ORIENTED_EDGE ( 'NONE', *, *, #134, .F. ) ;
#10 = AXIS2_PLACEMENT_3D ( 'NONE', #121, #142, #115 ) ;
#11 = PRODUCT_RELATED_PRODUCT_CATEGORY ( 'part', '', ( #61 ) ) ;
#12 = SURFACE_STYLE_FILL_AREA ( #109 ) ;
#13 = CARTESIAN_POINT ( 'NONE',  ( 31.69999999999999900, 0.0000000000000000000, -2.000000000000000000 ) ) ;
#14 = ORIENTED_EDGE ( 'NONE', *, *, #119, .T. ) ;
#15 = AXIS2_PLACEMENT_3D ( 'NONE', #192, #214, #169 ) ;
#16 = DIRECTION ( 'NONE',  ( 0.0000000000000000000, 0.0000000000000000000, 1.000000000000000000 ) ) ;
#17 = MECHANICAL_DESIGN_GEOMETRIC_PRESENTATION_REPRESENTATION (  '', ( #189 ), #26 ) ;
#18 = CARTESIAN_POINT ( 'NONE',  ( 0.0000000000000000000, 0.0000000000000000000, 0.0000000000000000000 ) ) ;
#19 = ORIENTED_EDGE ( 'NONE', *, *, #202, .T. ) ;
#20 =( NAMED_UNIT ( * ) SI_UNIT ( $, .STERADIAN. ) SOLID_ANGLE_UNIT ( ) );
#21 = AXIS2_PLACEMENT_3D ( 'NONE', #1, #51, #156 ) ;
#22 = APPLICATION_CONTEXT ( 'automotive_design' ) ;
#23 = ORIENTED_EDGE ( 'NONE', *, *, #172, .F. ) ;
#24 = ORIENTED_EDGE ( 'NONE', *, *, #165, .F. ) ;
#25 = PRESENTATION_LAYER_ASSIGNMENT (  '', '', ( #36 ) ) ;
#26 =( GEOMETRIC_REPRESENTATION_CONTEXT ( 3 ) GLOBAL_UNCERTAINTY_ASSIGNED_CONTEXT ( ( #143 ) ) GLOBAL_UNIT_ASSIGNED_CONTEXT ( ( #201, #98, #74 ) ) REPRESENTATION_CONTEXT ( 'NONE', 'WORKASPACE' ) );
#27 = VERTEX_POINT ( 'NONE', #50 ) ;
#28 = EDGE_CURVE ( 'NONE', #87, #193, #188, .T. ) ;
#29 = AXIS2_PLACEMENT_3D ( 'NONE', #113, #111, #108 ) ;
#30 = CARTESIAN_POINT ( 'NONE',  ( -31.69999999999999900, 3.882130353297110200E-015, 0.0000000000000000000 ) ) ;
#31 = ORIENTED_EDGE ( 'NONE', *, *, #2, .F. ) ;
#32 = PRESENTATION_LAYER_ASSIGNMENT (  '', '', ( #189 ) ) ;
#33 = ORIENTED_EDGE ( 'NONE', *, *, #66, .T. ) ;
#34 = CIRCLE ( 'NONE', #94, 31.69999999999999900 ) ;
#35 =( LENGTH_UNIT ( ) NAMED_UNIT ( * ) SI_UNIT ( .MILLI., .METRE. ) );
#36 = STYLED_ITEM ( 'NONE', ( #209 ), #68 ) ;
#37 = EDGE_LOOP ( 'NONE', ( #118, #195 ) ) ;
#38 = PRODUCT_CONTEXT ( 'NONE', #179, 'mechanical' ) ;
#39 = UNCERTAINTY_MEASURE_WITH_UNIT (LENGTH_MEASURE( 1.000000000000000100E-005 ), #35, 'distance_accuracy_value', 'NONE');
#40 = VERTEX_POINT ( 'NONE', #140 ) ;
#41 = LINE ( 'NONE', #123, #63 ) ;
#42 = AXIS2_PLACEMENT_3D ( 'NONE', #205, #96, #105 ) ;
#43 = ORIENTED_EDGE ( 'NONE', *, *, #28, .T. ) ;
#44 = ADVANCED_FACE ( 'NONE', ( #69 ), #62, .F. ) ;
#45 = ORIENTED_EDGE ( 'NONE', *, *, #134, .T. ) ;
#46 = ORIENTED_EDGE ( 'NONE', *, *, #66, .F. ) ;
#47 = AXIS2_PLACEMENT_3D ( 'NONE', #174, #173, #171 ) ;
#48 = DIRECTION ( 'NONE',  ( 1.000000000000000000, 0.0000000000000000000, 0.0000000000000000000 ) ) ;
#49 = SHAPE_DEFINITION_REPRESENTATION ( #153, #81 ) ;
#50 = CARTESIAN_POINT ( 'NONE',  ( 41.20000000000001000, 0.0000000000000000000, -2.000000000000000000 ) ) ;
#51 = DIRECTION ( 'NONE',  ( 0.0000000000000000000, 0.0000000000000000000, 1.000000000000000000 ) ) ;
#52 = EDGE_CURVE ( 'NONE', #27, #193, #170, .T. ) ;
#53 = AXIS2_PLACEMENT_3D ( 'NONE', #203, #187, #48 ) ;
#54 =( NAMED_UNIT ( * ) SI_UNIT ( $, .STERADIAN. ) SOLID_ANGLE_UNIT ( ) );
#55 = VECTOR ( 'NONE', #75, 1000.000000000000000 ) ;
#56 =( NAMED_UNIT ( * ) PLANE_ANGLE_UNIT ( ) SI_UNIT ( $, .RADIAN. ) );
#57 =( LENGTH_UNIT ( ) NAMED_UNIT ( * ) SI_UNIT ( .MILLI., .METRE. ) );
#58 = PRODUCT_DEFINITION_CONTEXT ( 'detailed design', #22, 'design' ) ;
#59 = EDGE_LOOP ( 'NONE', ( #31, #33, #207, #9 ) ) ;
#60 = DIRECTION ( 'NONE',  ( 0.0000000000000000000, 0.0000000000000000000, 1.000000000000000000 ) ) ;
#61 = PRODUCT ( '490DFL063-S10', '490DFL063-S10', '', ( #38 ) ) ;
#62 = CYLINDRICAL_SURFACE ( 'NONE', #53, 31.69999999999999900 ) ;
#63 = VECTOR ( 'NONE', #7, 1000.000000000000000 ) ;
#64 = MECHANICAL_DESIGN_GEOMETRIC_PRESENTATION_REPRESENTATION (  '', ( #36 ), #78 ) ;
#65 = ORIENTED_EDGE ( 'NONE', *, *, #28, .F. ) ;
#66 = EDGE_CURVE ( 'NONE', #135, #103, #206, .T. ) ;
#67 = FACE_OUTER_BOUND ( 'NONE', #137, .T. ) ;
#68 = MANIFOLD_SOLID_BREP ( 'Aufsatz-Linear austragen1', #110 ) ;
#69 = FACE_OUTER_BOUND ( 'NONE', #59, .T. ) ;
#70 = CARTESIAN_POINT ( 'NONE',  ( 0.0000000000000000000, 0.0000000000000000000, 0.0000000000000000000 ) ) ;
#71 = DIRECTION ( 'NONE',  ( 0.0000000000000000000, 0.0000000000000000000, 1.000000000000000000 ) ) ;
#72 = FILL_AREA_STYLE_COLOUR ( '', #155 ) ;
#73 =( GEOMETRIC_REPRESENTATION_CONTEXT ( 3 ) GLOBAL_UNCERTAINTY_ASSIGNED_CONTEXT ( ( #85 ) ) GLOBAL_UNIT_ASSIGNED_CONTEXT ( ( #57, #56, #54 ) ) REPRESENTATION_CONTEXT ( 'NONE', 'WORKASPACE' ) );
#74 =( NAMED_UNIT ( * ) SI_UNIT ( $, .STERADIAN. ) SOLID_ANGLE_UNIT ( ) );
#75 = DIRECTION ( 'NONE',  ( 0.0000000000000000000, 0.0000000000000000000, 1.000000000000000000 ) ) ;
#76 = ORIENTED_EDGE ( 'NONE', *, *, #52, .F. ) ;
#77 = EDGE_CURVE ( 'NONE', #40, #103, #136, .T. ) ;
#78 =( GEOMETRIC_REPRESENTATION_CONTEXT ( 3 ) GLOBAL_UNCERTAINTY_ASSIGNED_CONTEXT ( ( #39 ) ) GLOBAL_UNIT_ASSIGNED_CONTEXT ( ( #35, #107, #20 ) ) REPRESENTATION_CONTEXT ( 'NONE', 'WORKASPACE' ) );
#79 = FACE_OUTER_BOUND ( 'NONE', #152, .T. ) ;
#80 = ORIENTED_EDGE ( 'NONE', *, *, #77, .T. ) ;
#81 = ADVANCED_BREP_SHAPE_REPRESENTATION ( '490DFL063-S10', ( #68, #100 ), #73 ) ;
#82 = ORIENTED_EDGE ( 'NONE', *, *, #202, .F. ) ;
#83 = LINE ( 'NONE', #95, #55 ) ;
#84 = SURFACE_SIDE_STYLE ('',( #12 ) ) ;
#85 = UNCERTAINTY_MEASURE_WITH_UNIT (LENGTH_MEASURE( 1.000000000000000100E-005 ), #57, 'distance_accuracy_value', 'NONE');
#86 = AXIS2_PLACEMENT_3D ( 'NONE', #18, #16, #93 ) ;
#87 = VERTEX_POINT ( 'NONE', #130 ) ;
#88 = SURFACE_STYLE_USAGE ( .BOTH. , #84 ) ;
#89 = DIRECTION ( 'NONE',  ( 1.000000000000000000, 0.0000000000000000000, -0.0000000000000000000 ) ) ;
#90 = VERTEX_POINT ( 'NONE', #13 ) ;
#91 = CARTESIAN_POINT ( 'NONE',  ( -41.20000000000001000, 5.045544812487095700E-015, -2.000000000000000000 ) ) ;
#92 = FACE_OUTER_BOUND ( 'NONE', #151, .T. ) ;
#93 = DIRECTION ( 'NONE',  ( 1.000000000000000000, 0.0000000000000000000, 0.0000000000000000000 ) ) ;
#94 = AXIS2_PLACEMENT_3D ( 'NONE', #5, #3, #126 ) ;
#95 = CARTESIAN_POINT ( 'NONE',  ( -41.20000000000001000, 5.045544812487095700E-015, -2.000000000000000000 ) ) ;
#96 = DIRECTION ( 'NONE',  ( 0.0000000000000000000, 0.0000000000000000000, 1.000000000000000000 ) ) ;
#97 = VERTEX_POINT ( 'NONE', #91 ) ;
#98 =( NAMED_UNIT ( * ) PLANE_ANGLE_UNIT ( ) SI_UNIT ( $, .RADIAN. ) );
#99 = CARTESIAN_POINT ( 'NONE',  ( 0.0000000000000000000, 0.0000000000000000000, 0.0000000000000000000 ) ) ;
#100 = AXIS2_PLACEMENT_3D ( 'NONE', #70, #71, #200 ) ;
#101 = ORIENTED_EDGE ( 'NONE', *, *, #119, .F. ) ;
#102 = AXIS2_PLACEMENT_3D ( 'NONE', #162, #158, #157 ) ;
#103 = VERTEX_POINT ( 'NONE', #30 ) ;
#104 = CARTESIAN_POINT ( 'NONE',  ( 0.0000000000000000000, 0.0000000000000000000, -2.000000000000000000 ) ) ;
#105 = DIRECTION ( 'NONE',  ( 1.000000000000000000, 0.0000000000000000000, 0.0000000000000000000 ) ) ;
#106 = FILL_AREA_STYLE_COLOUR ( '', #184 ) ;
#107 =( NAMED_UNIT ( * ) PLANE_ANGLE_UNIT ( ) SI_UNIT ( $, .RADIAN. ) );
#108 = DIRECTION ( 'NONE',  ( 1.000000000000000000, 0.0000000000000000000, 0.0000000000000000000 ) ) ;
#109 = FILL_AREA_STYLE ('',( #106 ) ) ;
#110 = CLOSED_SHELL ( 'NONE', ( #44, #211, #198, #210, #138, #167 ) ) ;
#111 = DIRECTION ( 'NONE',  ( 0.0000000000000000000, 0.0000000000000000000, 1.000000000000000000 ) ) ;
#112 = AXIS2_PLACEMENT_3D ( 'NONE', #163, #176, #186 ) ;
#113 = CARTESIAN_POINT ( 'NONE',  ( 0.0000000000000000000, 0.0000000000000000000, 0.0000000000000000000 ) ) ;
#114 = EDGE_LOOP ( 'NONE', ( #212, #24 ) ) ;
#115 = DIRECTION ( 'NONE',  ( 1.000000000000000000, 0.0000000000000000000, 0.0000000000000000000 ) ) ;
#116 = AXIS2_PLACEMENT_3D ( 'NONE', #132, #129, #124 ) ;
#117 = FACE_OUTER_BOUND ( 'NONE', #197, .T. ) ;
#118 = ORIENTED_EDGE ( 'NONE', *, *, #77, .F. ) ;
#119 = EDGE_CURVE ( 'NONE', #90, #135, #34, .T. ) ;
#120 = CIRCLE ( 'NONE', #29, 31.69999999999999900 ) ;
#121 = CARTESIAN_POINT ( 'NONE',  ( 0.0000000000000000000, 0.0000000000000000000, -2.000000000000000000 ) ) ;
#122 = CARTESIAN_POINT ( 'NONE',  ( -31.69999999999999900, 3.882130353297110200E-015, -2.000000000000000000 ) ) ;
#123 = CARTESIAN_POINT ( 'NONE',  ( 31.69999999999999900, 0.0000000000000000000, -2.000000000000000000 ) ) ;
#124 = DIRECTION ( 'NONE',  ( 1.000000000000000000, 0.0000000000000000000, 0.0000000000000000000 ) ) ;
#125 = ORIENTED_EDGE ( 'NONE', *, *, #2, .T. ) ;
#126 = DIRECTION ( 'NONE',  ( 1.000000000000000000, 0.0000000000000000000, 0.0000000000000000000 ) ) ;
#127 = CYLINDRICAL_SURFACE ( 'NONE', #112, 31.69999999999999900 ) ;
#128 = DIRECTION ( 'NONE',  ( 1.000000000000000000, 0.0000000000000000000, -0.0000000000000000000 ) ) ;
#129 = DIRECTION ( 'NONE',  ( 0.0000000000000000000, 0.0000000000000000000, 1.000000000000000000 ) ) ;
#130 = CARTESIAN_POINT ( 'NONE',  ( -41.20000000000001000, 5.045544812487095700E-015, 0.0000000000000000000 ) ) ;
#131 = ORIENTED_EDGE ( 'NONE', *, *, #52, .T. ) ;
#132 = CARTESIAN_POINT ( 'NONE',  ( 0.0000000000000000000, 0.0000000000000000000, 0.0000000000000000000 ) ) ;
#133 = CARTESIAN_POINT ( 'NONE',  ( -31.69999999999999900, 3.882130353297110200E-015, -2.000000000000000000 ) ) ;
#134 = EDGE_CURVE ( 'NONE', #90, #40, #41, .T. ) ;
#135 = VERTEX_POINT ( 'NONE', #133 ) ;
#136 = CIRCLE ( 'NONE', #86, 31.69999999999999900 ) ;
#137 = EDGE_LOOP ( 'NONE', ( #46, #101, #45, #80 ) ) ;
#138 = ADVANCED_FACE ( 'NONE', ( #196, #92 ), #190, .T. ) ;
#139 = ORIENTED_EDGE ( 'NONE', *, *, #172, .T. ) ;
#140 = CARTESIAN_POINT ( 'NONE',  ( 31.69999999999999900, 0.0000000000000000000, 0.0000000000000000000 ) ) ;
#141 = ORIENTED_EDGE ( 'NONE', *, *, #160, .T. ) ;
#142 = DIRECTION ( 'NONE',  ( 0.0000000000000000000, 0.0000000000000000000, 1.000000000000000000 ) ) ;
#143 = UNCERTAINTY_MEASURE_WITH_UNIT (LENGTH_MEASURE( 1.000000000000000100E-005 ), #201, 'distance_accuracy_value', 'NONE');
#144 = EDGE_LOOP ( 'NONE', ( #14, #125 ) ) ;
#145 = CARTESIAN_POINT ( 'NONE',  ( 41.20000000000001000, 0.0000000000000000000, 0.0000000000000000000 ) ) ;
#146 = PLANE ( 'NONE',  #168 ) ;
#147 = CIRCLE ( 'NONE', #15, 31.69999999999999900 ) ;
#148 = SURFACE_STYLE_FILL_AREA ( #4 ) ;
#149 = CYLINDRICAL_SURFACE ( 'NONE', #10, 41.20000000000001000 ) ;
#150 = ORIENTED_EDGE ( 'NONE', *, *, #165, .T. ) ;
#151 = EDGE_LOOP ( 'NONE', ( #139, #43 ) ) ;
#152 = EDGE_LOOP ( 'NONE', ( #141, #19, #23, #76 ) ) ;
#153 = PRODUCT_DEFINITION_SHAPE ( 'NONE', 'NONE',  #178 ) ;
#154 = DIRECTION ( 'NONE',  ( 0.0000000000000000000, 0.0000000000000000000, 1.000000000000000000 ) ) ;
#155 = COLOUR_RGB ( '',0.7254901960784313500, 0.4470588235294117300, 0.3686274509803921800 ) ;
#156 = DIRECTION ( 'NONE',  ( 1.000000000000000000, 0.0000000000000000000, 0.0000000000000000000 ) ) ;
#157 = DIRECTION ( 'NONE',  ( 1.000000000000000000, 0.0000000000000000000, 0.0000000000000000000 ) ) ;
#158 = DIRECTION ( 'NONE',  ( 0.0000000000000000000, 0.0000000000000000000, 1.000000000000000000 ) ) ;
#159 = APPLICATION_PROTOCOL_DEFINITION ( 'draft international standard', 'automotive_design', 1998, #179 ) ;
#160 = EDGE_CURVE ( 'NONE', #27, #97, #213, .T. ) ;
#161 = APPLICATION_PROTOCOL_DEFINITION ( 'draft international standard', 'automotive_design', 1998, #22 ) ;
#162 = CARTESIAN_POINT ( 'NONE',  ( 0.0000000000000000000, 0.0000000000000000000, -2.000000000000000000 ) ) ;
#163 = CARTESIAN_POINT ( 'NONE',  ( 0.0000000000000000000, 0.0000000000000000000, -2.000000000000000000 ) ) ;
#164 = PRESENTATION_STYLE_ASSIGNMENT (( #204 ) ) ;
#165 = EDGE_CURVE ( 'NONE', #97, #27, #182, .T. ) ;
#166 = CIRCLE ( 'NONE', #116, 41.20000000000001000 ) ;
#167 = ADVANCED_FACE ( 'NONE', ( #67 ), #127, .F. ) ;
#168 = AXIS2_PLACEMENT_3D ( 'NONE', #104, #154, #89 ) ;
#169 = DIRECTION ( 'NONE',  ( 1.000000000000000000, 0.0000000000000000000, 0.0000000000000000000 ) ) ;
#170 = LINE ( 'NONE', #8, #181 ) ;
#171 = DIRECTION ( 'NONE',  ( 1.000000000000000000, 0.0000000000000000000, 0.0000000000000000000 ) ) ;
#172 = EDGE_CURVE ( 'NONE', #193, #87, #166, .T. ) ;
#173 = DIRECTION ( 'NONE',  ( 0.0000000000000000000, 0.0000000000000000000, 1.000000000000000000 ) ) ;
#174 = CARTESIAN_POINT ( 'NONE',  ( 0.0000000000000000000, 0.0000000000000000000, -2.000000000000000000 ) ) ;
#175 = CYLINDRICAL_SURFACE ( 'NONE', #42, 41.20000000000001000 ) ;
#176 = DIRECTION ( 'NONE',  ( 0.0000000000000000000, 0.0000000000000000000, 1.000000000000000000 ) ) ;
#177 = VECTOR ( 'NONE', #183, 1000.000000000000000 ) ;
#178 = PRODUCT_DEFINITION ( 'UNKNOWN', '', #191, #58 ) ;
#179 = APPLICATION_CONTEXT ( 'automotive_design' ) ;
#180 = AXIS2_PLACEMENT_3D ( 'NONE', #99, #185, #128 ) ;
#181 = VECTOR ( 'NONE', #60, 1000.000000000000000 ) ;
#182 = CIRCLE ( 'NONE', #102, 41.20000000000001000 ) ;
#183 = DIRECTION ( 'NONE',  ( 0.0000000000000000000, 0.0000000000000000000, 1.000000000000000000 ) ) ;
#184 = COLOUR_RGB ( '',0.7254901960784313500, 0.4470588235294117300, 0.3686274509803921800 ) ;
#185 = DIRECTION ( 'NONE',  ( 0.0000000000000000000, 0.0000000000000000000, 1.000000000000000000 ) ) ;
#186 = DIRECTION ( 'NONE',  ( 1.000000000000000000, 0.0000000000000000000, 0.0000000000000000000 ) ) ;
#187 = DIRECTION ( 'NONE',  ( 0.0000000000000000000, 0.0000000000000000000, 1.000000000000000000 ) ) ;
#188 = CIRCLE ( 'NONE', #21, 41.20000000000001000 ) ;
#189 = STYLED_ITEM ( 'NONE', ( #164 ), #81 ) ;
#190 = PLANE ( 'NONE',  #180 ) ;
#191 = PRODUCT_DEFINITION_FORMATION_WITH_SPECIFIED_SOURCE ( 'ANY', '', #61, .NOT_KNOWN. ) ;
#192 = CARTESIAN_POINT ( 'NONE',  ( 0.0000000000000000000, 0.0000000000000000000, -2.000000000000000000 ) ) ;
#193 = VERTEX_POINT ( 'NONE', #145 ) ;
#194 = EDGE_CURVE ( 'NONE', #103, #40, #120, .T. ) ;
#195 = ORIENTED_EDGE ( 'NONE', *, *, #194, .F. ) ;
#196 = FACE_BOUND ( 'NONE', #37, .T. ) ;
#197 = EDGE_LOOP ( 'NONE', ( #82, #150, #131, #65 ) ) ;
#198 = ADVANCED_FACE ( 'NONE', ( #117 ), #149, .T. ) ;
#199 = FACE_BOUND ( 'NONE', #144, .T. ) ;
#200 = DIRECTION ( 'NONE',  ( 1.000000000000000000, 0.0000000000000000000, 0.0000000000000000000 ) ) ;
#201 =( LENGTH_UNIT ( ) NAMED_UNIT ( * ) SI_UNIT ( .MILLI., .METRE. ) );
#202 = EDGE_CURVE ( 'NONE', #97, #87, #83, .T. ) ;
#203 = CARTESIAN_POINT ( 'NONE',  ( 0.0000000000000000000, 0.0000000000000000000, -2.000000000000000000 ) ) ;
#204 = SURFACE_STYLE_USAGE ( .BOTH. , #6 ) ;
#205 = CARTESIAN_POINT ( 'NONE',  ( 0.0000000000000000000, 0.0000000000000000000, -2.000000000000000000 ) ) ;
#206 = LINE ( 'NONE', #122, #177 ) ;
#207 = ORIENTED_EDGE ( 'NONE', *, *, #194, .T. ) ;
#208 = FACE_OUTER_BOUND ( 'NONE', #114, .T. ) ;
#209 = PRESENTATION_STYLE_ASSIGNMENT (( #88 ) ) ;
#210 = ADVANCED_FACE ( 'NONE', ( #199, #208 ), #146, .F. ) ;
#211 = ADVANCED_FACE ( 'NONE', ( #79 ), #175, .T. ) ;
#212 = ORIENTED_EDGE ( 'NONE', *, *, #160, .F. ) ;
#213 = CIRCLE ( 'NONE', #47, 41.20000000000001000 ) ;
#214 = DIRECTION ( 'NONE',  ( 0.0000000000000000000, 0.0000000000000000000, 1.000000000000000000 ) ) ;
ENDSEC;
END-ISO-10303-21;
