ISO-10303-21;
HEADER;
FILE_DESCRIPTION (( 'STEP AP214' ),
    '1' );
FILE_NAME ('106DOR016-S1.step',
    '2017-07-06T09:24:42',
    ( 'install' ),
    ( '' ),
    'SwSTEP 2.0',
    'SolidWorks 2015',
    '' );
FILE_SCHEMA (( 'AUTOMOTIVE_DESIGN' ));
ENDSEC;

DATA;
#1 =( GEOMETRIC_REPRESENTATION_CONTEXT ( 3 ) GLOBAL_UNCERTAINTY_ASSIGNED_CONTEXT ( ( #30 ) ) GLOBAL_UNIT_ASSIGNED_CONTEXT ( ( #116, #39, #130 ) ) REPRESENTATION_CONTEXT ( 'NONE', 'WORKASPACE' ) );
#2 = ORIENTED_EDGE ( 'NONE', *, *, #57, .T. ) ;
#3 = DIRECTION ( 'NONE',  ( 1.000000000000000000, 0.0000000000000000000, 0.0000000000000000000 ) ) ;
#4 = EDGE_LOOP ( 'NONE', ( #86, #158, #62, #66 ) ) ;
#5 = CARTESIAN_POINT ( 'NONE',  ( -11.49999999999999600, 1.408343819019455800E-015, 0.0000000000000000000 ) ) ;
#6 = APPLICATION_PROTOCOL_DEFINITION ( 'draft international standard', 'automotive_design', 1998, #126 ) ;
#7 = CARTESIAN_POINT ( 'NONE',  ( 0.0000000000000000000, 0.0000000000000000000, 0.0000000000000000000 ) ) ;
#8 = DIRECTION ( 'NONE',  ( -0.0000000000000000000, -0.0000000000000000000, 1.000000000000000000 ) ) ;
#9 = AXIS2_PLACEMENT_3D ( 'NONE', #7, #89, #17 ) ;
#10 = ORIENTED_EDGE ( 'NONE', *, *, #49, .F. ) ;
#11 = CIRCLE ( 'NONE', #125, 2.499999999999998700 ) ;
#12 = AXIS2_PLACEMENT_3D ( 'NONE', #117, #41, #131 ) ;
#13 = DIRECTION ( 'NONE',  ( -0.0000000000000000000, -0.0000000000000000000, 1.000000000000000000 ) ) ;
#14 = DIRECTION ( 'NONE',  ( -1.000000000000000000, 1.224646799147353500E-016, 0.0000000000000000000 ) ) ;
#15 = CIRCLE ( 'NONE', #81, 13.99999999999999500 ) ;
#16 = APPLICATION_CONTEXT ( 'automotive_design' ) ;
#17 = DIRECTION ( 'NONE',  ( 1.000000000000000000, 0.0000000000000000000, 0.0000000000000000000 ) ) ;
#18 = SURFACE_STYLE_FILL_AREA ( #44 ) ;
#19 = VERTEX_POINT ( 'NONE', #35 ) ;
#20 = AXIS2_PLACEMENT_3D ( 'NONE', #65, #156, #77 ) ;
#21 = EDGE_LOOP ( 'NONE', ( #53, #121, #43, #32 ) ) ;
#22 = AXIS2_PLACEMENT_3D ( 'NONE', #98, #74, #3 ) ;
#23 = EDGE_CURVE ( 'NONE', #124, #83, #135, .T. ) ;
#24 = ORIENTED_EDGE ( 'NONE', *, *, #73, .F. ) ;
#25 = DIRECTION ( 'NONE',  ( -0.0000000000000000000, -0.0000000000000000000, 1.000000000000000000 ) ) ;
#26 = SURFACE_STYLE_USAGE ( .BOTH. , #101 ) ;
#27 = FACE_OUTER_BOUND ( 'NONE', #4, .T. ) ;
#28 =( GEOMETRIC_REPRESENTATION_CONTEXT ( 3 ) GLOBAL_UNCERTAINTY_ASSIGNED_CONTEXT ( ( #123 ) ) GLOBAL_UNIT_ASSIGNED_CONTEXT ( ( #157, #48, #111 ) ) REPRESENTATION_CONTEXT ( 'NONE', 'WORKASPACE' ) );
#29 = ADVANCED_FACE ( 'NONE', ( #80 ), #47, .T. ) ;
#30 = UNCERTAINTY_MEASURE_WITH_UNIT (LENGTH_MEASURE( 1.000000000000000100E-005 ), #116, 'distance_accuracy_value', 'NONE');
#31 = EDGE_LOOP ( 'NONE', ( #152, #10, #59, #2 ) ) ;
#32 = ORIENTED_EDGE ( 'NONE', *, *, #49, .T. ) ;
#33 = EDGE_CURVE ( 'NONE', #129, #19, #15, .T. ) ;
#34 = AXIS2_PLACEMENT_3D ( 'NONE', #141, #8, #91 ) ;
#35 = CARTESIAN_POINT ( 'NONE',  ( -13.99999999999999500, 1.714505518806294200E-015, 0.0000000000000000000 ) ) ;
#36 =( NAMED_UNIT ( * ) PLANE_ANGLE_UNIT ( ) SI_UNIT ( $, .RADIAN. ) );
#37 = ADVANCED_FACE ( 'NONE', ( #115 ), #110, .T. ) ;
#38 = DIRECTION ( 'NONE',  ( -0.0000000000000000000, -0.0000000000000000000, 1.000000000000000000 ) ) ;
#39 =( NAMED_UNIT ( * ) PLANE_ANGLE_UNIT ( ) SI_UNIT ( $, .RADIAN. ) );
#40 = PRESENTATION_STYLE_ASSIGNMENT (( #26 ) ) ;
#41 = DIRECTION ( 'NONE',  ( 1.224646799147353200E-016, 1.000000000000000000, 0.0000000000000000000 ) ) ;
#42 = EDGE_CURVE ( 'NONE', #83, #124, #76, .T. ) ;
#43 = ORIENTED_EDGE ( 'NONE', *, *, #23, .T. ) ;
#44 = FILL_AREA_STYLE ('',( #143 ) ) ;
#45 = COLOUR_RGB ( '',0.3843137254901960500, 0.3843137254901960500, 0.3843137254901960500 ) ;
#46 = AXIS2_PLACEMENT_3D ( 'NONE', #103, #54, #119 ) ;
#47 = TOROIDAL_SURFACE ( 'NONE', #90, 11.49999999999999600, 2.499999999999998700 ) ;
#48 =( NAMED_UNIT ( * ) PLANE_ANGLE_UNIT ( ) SI_UNIT ( $, .RADIAN. ) );
#49 = EDGE_CURVE ( 'NONE', #83, #129, #145, .T. ) ;
#50 = COLOUR_RGB ( '',0.3843137254901960500, 0.3843137254901960500, 0.3843137254901960500 ) ;
#51 = DIRECTION ( 'NONE',  ( -0.0000000000000000000, -0.0000000000000000000, 1.000000000000000000 ) ) ;
#52 = CARTESIAN_POINT ( 'NONE',  ( 11.49999999999999600, 0.0000000000000000000, 0.0000000000000000000 ) ) ;
#53 = ORIENTED_EDGE ( 'NONE', *, *, #68, .F. ) ;
#54 = DIRECTION ( 'NONE',  ( -0.0000000000000000000, -0.0000000000000000000, 1.000000000000000000 ) ) ;
#55 = CARTESIAN_POINT ( 'NONE',  ( 13.99999999999999500, 0.0000000000000000000, 0.0000000000000000000 ) ) ;
#56 = CLOSED_SHELL ( 'NONE', ( #37, #104, #120, #29 ) ) ;
#57 = EDGE_CURVE ( 'NONE', #124, #19, #11, .T. ) ;
#58 = MANIFOLD_SOLID_BREP ( 'Rotation1', #56 ) ;
#59 = ORIENTED_EDGE ( 'NONE', *, *, #42, .T. ) ;
#60 = STYLED_ITEM ( 'NONE', ( #147 ), #96 ) ;
#61 = CARTESIAN_POINT ( 'NONE',  ( 0.0000000000000000000, 0.0000000000000000000, 0.0000000000000000000 ) ) ;
#62 = ORIENTED_EDGE ( 'NONE', *, *, #73, .T. ) ;
#63 = DIRECTION ( 'NONE',  ( 1.000000000000000000, 0.0000000000000000000, 0.0000000000000000000 ) ) ;
#64 = DIRECTION ( 'NONE',  ( 0.0000000000000000000, 0.0000000000000000000, -1.000000000000000000 ) ) ;
#65 = CARTESIAN_POINT ( 'NONE',  ( 11.49999999999999600, 0.0000000000000000000, 0.0000000000000000000 ) ) ;
#66 = ORIENTED_EDGE ( 'NONE', *, *, #42, .F. ) ;
#67 = CARTESIAN_POINT ( 'NONE',  ( 0.0000000000000000000, 0.0000000000000000000, 0.0000000000000000000 ) ) ;
#68 = EDGE_CURVE ( 'NONE', #19, #129, #132, .T. ) ;
#69 = UNCERTAINTY_MEASURE_WITH_UNIT (LENGTH_MEASURE( 1.000000000000000100E-005 ), #150, 'distance_accuracy_value', 'NONE');
#70 = PRESENTATION_LAYER_ASSIGNMENT (  '', '', ( #60 ) ) ;
#71 = SHAPE_DEFINITION_REPRESENTATION ( #144, #96 ) ;
#72 = SURFACE_STYLE_FILL_AREA ( #153 ) ;
#73 = EDGE_CURVE ( 'NONE', #19, #124, #107, .T. ) ;
#74 = DIRECTION ( 'NONE',  ( -0.0000000000000000000, -0.0000000000000000000, 1.000000000000000000 ) ) ;
#75 = DIRECTION ( 'NONE',  ( 1.000000000000000000, 0.0000000000000000000, 0.0000000000000000000 ) ) ;
#76 = CIRCLE ( 'NONE', #97, 8.999999999999998200 ) ;
#77 = DIRECTION ( 'NONE',  ( 0.0000000000000000000, 0.0000000000000000000, -1.000000000000000000 ) ) ;
#78 = MECHANICAL_DESIGN_GEOMETRIC_PRESENTATION_REPRESENTATION (  '', ( #60 ), #84 ) ;
#79 = SURFACE_SIDE_STYLE ('',( #18 ) ) ;
#80 = FACE_OUTER_BOUND ( 'NONE', #21, .T. ) ;
#81 = AXIS2_PLACEMENT_3D ( 'NONE', #128, #51, #138 ) ;
#82 = EDGE_CURVE ( 'NONE', #129, #83, #94, .T. ) ;
#83 = VERTEX_POINT ( 'NONE', #155 ) ;
#84 =( GEOMETRIC_REPRESENTATION_CONTEXT ( 3 ) GLOBAL_UNCERTAINTY_ASSIGNED_CONTEXT ( ( #69 ) ) GLOBAL_UNIT_ASSIGNED_CONTEXT ( ( #150, #36, #109 ) ) REPRESENTATION_CONTEXT ( 'NONE', 'WORKASPACE' ) );
#85 = DIRECTION ( 'NONE',  ( 1.000000000000000000, 0.0000000000000000000, 0.0000000000000000000 ) ) ;
#86 = ORIENTED_EDGE ( 'NONE', *, *, #82, .F. ) ;
#87 = DIRECTION ( 'NONE',  ( 1.224646799147353200E-016, 1.000000000000000000, 0.0000000000000000000 ) ) ;
#88 = PRODUCT_CONTEXT ( 'NONE', #126, 'mechanical' ) ;
#89 = DIRECTION ( 'NONE',  ( -0.0000000000000000000, -0.0000000000000000000, 1.000000000000000000 ) ) ;
#90 = AXIS2_PLACEMENT_3D ( 'NONE', #113, #13, #85 ) ;
#91 = DIRECTION ( 'NONE',  ( 1.000000000000000000, 0.0000000000000000000, 0.0000000000000000000 ) ) ;
#92 = FACE_OUTER_BOUND ( 'NONE', #31, .T. ) ;
#93 = EDGE_LOOP ( 'NONE', ( #24, #99, #148, #95 ) ) ;
#94 = CIRCLE ( 'NONE', #20, 2.499999999999998700 ) ;
#95 = ORIENTED_EDGE ( 'NONE', *, *, #23, .F. ) ;
#96 = ADVANCED_BREP_SHAPE_REPRESENTATION ( '106DOR016-S1', ( #58, #112 ), #28 ) ;
#97 = AXIS2_PLACEMENT_3D ( 'NONE', #100, #25, #114 ) ;
#98 = CARTESIAN_POINT ( 'NONE',  ( 0.0000000000000000000, 0.0000000000000000000, -3.061616997868381700E-016 ) ) ;
#99 = ORIENTED_EDGE ( 'NONE', *, *, #68, .T. ) ;
#100 = CARTESIAN_POINT ( 'NONE',  ( 0.0000000000000000000, 0.0000000000000000000, -3.061616997868381700E-016 ) ) ;
#101 = SURFACE_SIDE_STYLE ('',( #72 ) ) ;
#102 = APPLICATION_PROTOCOL_DEFINITION ( 'draft international standard', 'automotive_design', 1998, #16 ) ;
#103 = CARTESIAN_POINT ( 'NONE',  ( 0.0000000000000000000, 0.0000000000000000000, 0.0000000000000000000 ) ) ;
#104 = ADVANCED_FACE ( 'NONE', ( #27 ), #140, .T. ) ;
#105 = SURFACE_STYLE_USAGE ( .BOTH. , #79 ) ;
#106 = PRODUCT_DEFINITION_CONTEXT ( 'detailed design', #16, 'design' ) ;
#107 = CIRCLE ( 'NONE', #12, 2.499999999999998700 ) ;
#108 = AXIS2_PLACEMENT_3D ( 'NONE', #61, #38, #63 ) ;
#109 =( NAMED_UNIT ( * ) SI_UNIT ( $, .STERADIAN. ) SOLID_ANGLE_UNIT ( ) );
#110 = TOROIDAL_SURFACE ( 'NONE', #108, 11.49999999999999600, 2.499999999999998700 ) ;
#111 =( NAMED_UNIT ( * ) SI_UNIT ( $, .STERADIAN. ) SOLID_ANGLE_UNIT ( ) );
#112 = AXIS2_PLACEMENT_3D ( 'NONE', #67, #154, #75 ) ;
#113 = CARTESIAN_POINT ( 'NONE',  ( 0.0000000000000000000, 0.0000000000000000000, 0.0000000000000000000 ) ) ;
#114 = DIRECTION ( 'NONE',  ( 1.000000000000000000, 0.0000000000000000000, 0.0000000000000000000 ) ) ;
#115 = FACE_OUTER_BOUND ( 'NONE', #93, .T. ) ;
#116 =( LENGTH_UNIT ( ) NAMED_UNIT ( * ) SI_UNIT ( .MILLI., .METRE. ) );
#117 = CARTESIAN_POINT ( 'NONE',  ( -11.49999999999999600, 1.408343819019455800E-015, 0.0000000000000000000 ) ) ;
#118 = AXIS2_PLACEMENT_3D ( 'NONE', #52, #139, #64 ) ;
#119 = DIRECTION ( 'NONE',  ( 1.000000000000000000, 0.0000000000000000000, 0.0000000000000000000 ) ) ;
#120 = ADVANCED_FACE ( 'NONE', ( #92 ), #127, .T. ) ;
#121 = ORIENTED_EDGE ( 'NONE', *, *, #57, .F. ) ;
#122 = PRODUCT_DEFINITION ( 'UNKNOWN', '', #134, #106 ) ;
#123 = UNCERTAINTY_MEASURE_WITH_UNIT (LENGTH_MEASURE( 1.000000000000000100E-005 ), #157, 'distance_accuracy_value', 'NONE');
#124 = VERTEX_POINT ( 'NONE', #133 ) ;
#125 = AXIS2_PLACEMENT_3D ( 'NONE', #5, #87, #14 ) ;
#126 = APPLICATION_CONTEXT ( 'automotive_design' ) ;
#127 = TOROIDAL_SURFACE ( 'NONE', #46, 11.49999999999999600, 2.499999999999998700 ) ;
#128 = CARTESIAN_POINT ( 'NONE',  ( 0.0000000000000000000, 0.0000000000000000000, 0.0000000000000000000 ) ) ;
#129 = VERTEX_POINT ( 'NONE', #55 ) ;
#130 =( NAMED_UNIT ( * ) SI_UNIT ( $, .STERADIAN. ) SOLID_ANGLE_UNIT ( ) );
#131 = DIRECTION ( 'NONE',  ( -1.000000000000000000, 1.224646799147353500E-016, 0.0000000000000000000 ) ) ;
#132 = CIRCLE ( 'NONE', #9, 13.99999999999999500 ) ;
#133 = CARTESIAN_POINT ( 'NONE',  ( -8.999999999999998200, 1.102182119232617500E-015, -3.061616997868381700E-016 ) ) ;
#134 = PRODUCT_DEFINITION_FORMATION_WITH_SPECIFIED_SOURCE ( 'ANY', '', #146, .NOT_KNOWN. ) ;
#135 = CIRCLE ( 'NONE', #22, 8.999999999999998200 ) ;
#136 = STYLED_ITEM ( 'NONE', ( #40 ), #58 ) ;
#137 = PRODUCT_RELATED_PRODUCT_CATEGORY ( 'part', '', ( #146 ) ) ;
#138 = DIRECTION ( 'NONE',  ( 1.000000000000000000, 0.0000000000000000000, 0.0000000000000000000 ) ) ;
#139 = DIRECTION ( 'NONE',  ( 0.0000000000000000000, -1.000000000000000000, 0.0000000000000000000 ) ) ;
#140 = TOROIDAL_SURFACE ( 'NONE', #34, 11.49999999999999600, 2.499999999999998700 ) ;
#141 = CARTESIAN_POINT ( 'NONE',  ( 0.0000000000000000000, 0.0000000000000000000, 0.0000000000000000000 ) ) ;
#142 = PRESENTATION_LAYER_ASSIGNMENT (  '', '', ( #136 ) ) ;
#143 = FILL_AREA_STYLE_COLOUR ( '', #50 ) ;
#144 = PRODUCT_DEFINITION_SHAPE ( 'NONE', 'NONE',  #122 ) ;
#145 = CIRCLE ( 'NONE', #118, 2.499999999999998700 ) ;
#146 = PRODUCT ( '106DOR016-S1', '106DOR016-S1', '', ( #88 ) ) ;
#147 = PRESENTATION_STYLE_ASSIGNMENT (( #105 ) ) ;
#148 = ORIENTED_EDGE ( 'NONE', *, *, #82, .T. ) ;
#149 = MECHANICAL_DESIGN_GEOMETRIC_PRESENTATION_REPRESENTATION (  '', ( #136 ), #1 ) ;
#150 =( LENGTH_UNIT ( ) NAMED_UNIT ( * ) SI_UNIT ( .MILLI., .METRE. ) );
#151 = FILL_AREA_STYLE_COLOUR ( '', #45 ) ;
#152 = ORIENTED_EDGE ( 'NONE', *, *, #33, .F. ) ;
#153 = FILL_AREA_STYLE ('',( #151 ) ) ;
#154 = DIRECTION ( 'NONE',  ( 0.0000000000000000000, 0.0000000000000000000, 1.000000000000000000 ) ) ;
#155 = CARTESIAN_POINT ( 'NONE',  ( 8.999999999999998200, 0.0000000000000000000, -3.061616997868381700E-016 ) ) ;
#156 = DIRECTION ( 'NONE',  ( 0.0000000000000000000, -1.000000000000000000, 0.0000000000000000000 ) ) ;
#157 =( LENGTH_UNIT ( ) NAMED_UNIT ( * ) SI_UNIT ( .MILLI., .METRE. ) );
#158 = ORIENTED_EDGE ( 'NONE', *, *, #33, .T. ) ;
ENDSEC;
END-ISO-10303-21;
