ISO-10303-21;
HEADER;
/****************************************************************
 * Generated by software with PDE/Lib inside                    *
 * PDE/Lib Version 3.2.6, created Mon Nov 19, 2001 at 18:43:38  *
 * International Technegroup Inc. (www.iti-oh.com)              *
 ****************************************************************/
FILE_DESCRIPTION((''),'2;1');
FILE_NAME('W:\\212-015.stp','2004-01-07T13:35:26',('KAA'),(''),'Autodesk Inventor (R) 6.0','Autodesk Inventor (R) 6.0','');
FILE_SCHEMA(('CONFIG_CONTROL_DESIGN'));
ENDSEC;
DATA;
#5=APPLICATION_CONTEXT('configuration controlled 3D designs of mechanical parts and assemblies');
#6=APPLICATION_PROTOCOL_DEFINITION('International Standard','config_control_design',1995,#5);
#7=MECHANICAL_CONTEXT('None',#5,'mechanical');
#8=PRODUCT('212-015','212-015','None',(#7));
#9=PRODUCT_RELATED_PRODUCT_CATEGORY('detail',$,(#8));
#10=PRODUCT_CATEGORY('part',$);
#11=PRODUCT_CATEGORY_RELATIONSHIP('None','None',#10,#9);
#12=PERSON('PERSON1','None','None',$,$,$);
#13=ORGANIZATION('','None','None');
#14=PERSON_AND_ORGANIZATION(#12,#13);
#15=PERSON_AND_ORGANIZATION_ROLE('design_owner');
#16=CC_DESIGN_PERSON_AND_ORGANIZATION_ASSIGNMENT(#14,#15,(#8));
#17=PRODUCT_DEFINITION_FORMATION_WITH_SPECIFIED_SOURCE('None','None',#8,.NOT_KNOWN.);
#18=PERSON('PERSON2','None','None',$,$,$);
#19=ORGANIZATION('','None','None');
#20=PERSON_AND_ORGANIZATION(#18,#19);
#21=PERSON_AND_ORGANIZATION_ROLE('creator');
#22=CC_DESIGN_PERSON_AND_ORGANIZATION_ASSIGNMENT(#20,#21,(#17));
#23=PERSON('PERSON3','None','None',$,$,$);
#24=ORGANIZATION('','None','None');
#25=PERSON_AND_ORGANIZATION(#23,#24);
#26=PERSON_AND_ORGANIZATION_ROLE('part_supplier');
#27=CC_DESIGN_PERSON_AND_ORGANIZATION_ASSIGNMENT(#25,#26,(#17));
#28=APPROVAL_STATUS('approved');
#29=APPROVAL(#28,'None');
#30=PERSON('PERSON4','None','None',$,$,$);
#31=ORGANIZATION('','None','None');
#32=PERSON_AND_ORGANIZATION(#30,#31);
#33=APPROVAL_ROLE('None');
#34=APPROVAL_PERSON_ORGANIZATION(#32,#29,#33);
#35=CALENDAR_DATE(2004,7,1);
#36=COORDINATED_UNIVERSAL_TIME_OFFSET(0,0,.AHEAD.);
#37=LOCAL_TIME(13,35,26.0,#36);
#38=DATE_AND_TIME(#35,#37);
#39=APPROVAL_DATE_TIME(#38,#29);
#40=CC_DESIGN_APPROVAL(#29,(#17));
#41=SECURITY_CLASSIFICATION_LEVEL('unclassified');
#42=SECURITY_CLASSIFICATION('None','None',#41);
#43=CC_DESIGN_SECURITY_CLASSIFICATION(#42,(#17));
#44=APPROVAL_STATUS('approved');
#45=APPROVAL(#44,'None');
#46=PERSON('PERSON5','None','None',$,$,$);
#47=ORGANIZATION('','None','None');
#48=PERSON_AND_ORGANIZATION(#46,#47);
#49=APPROVAL_ROLE('None');
#50=APPROVAL_PERSON_ORGANIZATION(#48,#45,#49);
#51=CALENDAR_DATE(2004,7,1);
#52=COORDINATED_UNIVERSAL_TIME_OFFSET(0,0,.AHEAD.);
#53=LOCAL_TIME(13,35,26.0,#52);
#54=DATE_AND_TIME(#51,#53);
#55=APPROVAL_DATE_TIME(#54,#45);
#56=CC_DESIGN_APPROVAL(#45,(#42));
#57=PERSON('PERSON6','None','None',$,$,$);
#58=ORGANIZATION('','None','None');
#59=PERSON_AND_ORGANIZATION(#57,#58);
#60=PERSON_AND_ORGANIZATION_ROLE('classification_officer');
#61=CC_DESIGN_PERSON_AND_ORGANIZATION_ASSIGNMENT(#59,#60,(#42));
#62=DATE_TIME_ROLE('classification_date');
#63=CALENDAR_DATE(2004,7,1);
#64=COORDINATED_UNIVERSAL_TIME_OFFSET(0,0,.AHEAD.);
#65=LOCAL_TIME(13,35,26.0,#64);
#66=DATE_AND_TIME(#63,#65);
#67=CC_DESIGN_DATE_AND_TIME_ASSIGNMENT(#66,#62,(#42));
#68=DESIGN_CONTEXT('part definition',#5,'design');
#69=PRODUCT_DEFINITION('None','None',#17,#68);
#70=PERSON('PERSON7','None','None',$,$,$);
#71=ORGANIZATION('','None','None');
#72=PERSON_AND_ORGANIZATION(#70,#71);
#73=PERSON_AND_ORGANIZATION_ROLE('creator');
#74=CC_DESIGN_PERSON_AND_ORGANIZATION_ASSIGNMENT(#72,#73,(#69));
#75=DATE_TIME_ROLE('creation_date');
#76=CALENDAR_DATE(2004,7,1);
#77=COORDINATED_UNIVERSAL_TIME_OFFSET(0,0,.AHEAD.);
#78=LOCAL_TIME(13,35,26.0,#77);
#79=DATE_AND_TIME(#76,#78);
#80=CC_DESIGN_DATE_AND_TIME_ASSIGNMENT(#79,#75,(#69));
#81=APPROVAL_STATUS('approved');
#82=APPROVAL(#81,'None');
#83=PERSON('PERSON8','None','None',$,$,$);
#84=ORGANIZATION('','None','None');
#85=PERSON_AND_ORGANIZATION(#83,#84);
#86=APPROVAL_ROLE('None');
#87=APPROVAL_PERSON_ORGANIZATION(#85,#82,#86);
#88=CALENDAR_DATE(2004,7,1);
#89=COORDINATED_UNIVERSAL_TIME_OFFSET(0,0,.AHEAD.);
#90=LOCAL_TIME(13,35,26.0,#89);
#91=DATE_AND_TIME(#88,#90);
#92=APPROVAL_DATE_TIME(#91,#82);
#93=CC_DESIGN_APPROVAL(#82,(#69));
#99=(NAMED_UNIT(*)PLANE_ANGLE_UNIT()SI_UNIT($,.RADIAN.));
#100=DIMENSIONAL_EXPONENTS(0.0,0.0,0.0,0.0,0.0,0.0,0.0);
#101=PLANE_ANGLE_MEASURE_WITH_UNIT(PLANE_ANGLE_MEASURE(0.017453292500000),#99);
#105=(CONVERSION_BASED_UNIT('DEGREE',#101)NAMED_UNIT(#100)PLANE_ANGLE_UNIT());
#109=(NAMED_UNIT(*)SI_UNIT($,.STERADIAN.)SOLID_ANGLE_UNIT());
#113=(LENGTH_UNIT()NAMED_UNIT(*)SI_UNIT(.MILLI.,.METRE.));
#115=UNCERTAINTY_MEASURE_WITH_UNIT(LENGTH_MEASURE(0.000001000000000),#113,'DISTANCE_ACCURACY_VALUE','');
#117=(GEOMETRIC_REPRESENTATION_CONTEXT(3)GLOBAL_UNCERTAINTY_ASSIGNED_CONTEXT((#115))GLOBAL_UNIT_ASSIGNED_CONTEXT((#105,#109,#113))REPRESENTATION_CONTEXT('None','None'));
#118=AXIS2_PLACEMENT_3D('',#119,#120,#121);
#119=CARTESIAN_POINT('',(0.0,0.0,0.0));
#120=DIRECTION('',(0.0,0.0,1.0));
#121=DIRECTION('',(1.0,0.0,0.0));
#122=SHAPE_REPRESENTATION('',(#118),#117);
#123=PRODUCT_DEFINITION_SHAPE('','',#69);
#124=SHAPE_DEFINITION_REPRESENTATION(#123,#122);
#125=CARTESIAN_POINT('',(0.0,0.0,5.0));
#126=DIRECTION('',(0.0,0.0,-1.0));
#127=DIRECTION('',(-1.0,0.0,0.0));
#128=AXIS2_PLACEMENT_3D('',#125,#126,#127);
#129=TOROIDAL_SURFACE('',#128,145.0,2.500000000000000);
#130=CARTESIAN_POINT('',(142.500000000000000,1.567767E-014,5.0));
#131=VERTEX_POINT('',#130);
#132=CARTESIAN_POINT('',(-142.500000000000000,-1.567767E-014,5.0));
#133=VERTEX_POINT('',#132);
#134=CARTESIAN_POINT('',(0.0,0.0,5.0));
#135=DIRECTION('',(0.0,0.0,-1.0));
#136=DIRECTION('',(-1.0,0.0,0.0));
#137=AXIS2_PLACEMENT_3D('',#134,#135,#136);
#138=CIRCLE('',#137,142.500000000000000);
#139=EDGE_CURVE('',#131,#133,#138,.T.);
#140=ORIENTED_EDGE('',*,*,#139,.F.);
#141=CARTESIAN_POINT('',(145.0,0.0,7.500000000000000));
#142=VERTEX_POINT('',#141);
#143=CARTESIAN_POINT('',(145.0,1.775679E-014,5.0));
#144=DIRECTION('',(0.0,1.0,0.0));
#145=DIRECTION('',(1.0,0.0,0.0));
#146=AXIS2_PLACEMENT_3D('',#143,#144,#145);
#147=CIRCLE('',#146,2.500000000000000);
#148=EDGE_CURVE('',#131,#142,#147,.T.);
#149=ORIENTED_EDGE('',*,*,#148,.T.);
#150=CARTESIAN_POINT('',(-145.0,-1.775679E-014,7.500000000000000));
#151=VERTEX_POINT('',#150);
#152=CARTESIAN_POINT('',(0.0,0.0,7.500000000000000));
#153=DIRECTION('',(0.0,0.0,1.0));
#154=DIRECTION('',(-1.0,0.0,0.0));
#155=AXIS2_PLACEMENT_3D('',#152,#153,#154);
#156=CIRCLE('',#155,145.0);
#157=EDGE_CURVE('',#151,#142,#156,.T.);
#158=ORIENTED_EDGE('',*,*,#157,.F.);
#159=CARTESIAN_POINT('',(-145.0,-1.775679E-014,5.0));
#160=DIRECTION('',(0.0,1.0,0.0));
#161=DIRECTION('',(-1.0,0.0,0.0));
#162=AXIS2_PLACEMENT_3D('',#159,#160,#161);
#163=CIRCLE('',#162,2.500000000000000);
#164=EDGE_CURVE('',#151,#133,#163,.T.);
#165=ORIENTED_EDGE('',*,*,#164,.T.);
#166=EDGE_LOOP('',(#140,#149,#158,#165));
#167=FACE_OUTER_BOUND('',#166,.T.);
#168=ADVANCED_FACE('',(#167),#129,.F.);
#169=CARTESIAN_POINT('',(0.0,0.0,5.0));
#170=DIRECTION('',(0.0,0.0,-1.0));
#171=DIRECTION('',(-1.0,0.0,0.0));
#172=AXIS2_PLACEMENT_3D('',#169,#170,#171);
#173=TOROIDAL_SURFACE('',#172,145.0,2.500000000000000);
#174=CARTESIAN_POINT('',(0.0,0.0,5.0));
#175=DIRECTION('',(0.0,0.0,-1.0));
#176=DIRECTION('',(-1.0,0.0,0.0));
#177=AXIS2_PLACEMENT_3D('',#174,#175,#176);
#178=CIRCLE('',#177,142.500000000000000);
#179=EDGE_CURVE('',#133,#131,#178,.T.);
#180=ORIENTED_EDGE('',*,*,#179,.F.);
#181=ORIENTED_EDGE('',*,*,#164,.F.);
#182=CARTESIAN_POINT('',(0.0,0.0,7.500000000000000));
#183=DIRECTION('',(0.0,0.0,1.0));
#184=DIRECTION('',(-1.0,0.0,0.0));
#185=AXIS2_PLACEMENT_3D('',#182,#183,#184);
#186=CIRCLE('',#185,145.0);
#187=EDGE_CURVE('',#142,#151,#186,.T.);
#188=ORIENTED_EDGE('',*,*,#187,.F.);
#189=ORIENTED_EDGE('',*,*,#148,.F.);
#190=EDGE_LOOP('',(#180,#181,#188,#189));
#191=FACE_OUTER_BOUND('',#190,.T.);
#192=ADVANCED_FACE('',(#191),#173,.F.);
#193=CARTESIAN_POINT('',(0.0,0.0,0.0));
#194=DIRECTION('',(0.0,0.0,1.0));
#195=DIRECTION('',(-1.0,0.0,0.0));
#196=AXIS2_PLACEMENT_3D('',#193,#194,#195);
#197=CYLINDRICAL_SURFACE('',#196,145.0);
#198=CARTESIAN_POINT('',(-145.0,1.775679E-014,12.0));
#199=VERTEX_POINT('',#198);
#200=CARTESIAN_POINT('',(-145.0,-1.775679E-014,7.500000000000000));
#201=DIRECTION('',(0.0,0.0,1.0));
#202=VECTOR('',#201,4.500000000000000);
#203=LINE('',#200,#202);
#204=EDGE_CURVE('',#151,#199,#203,.T.);
#205=ORIENTED_EDGE('',*,*,#204,.F.);
#206=ORIENTED_EDGE('',*,*,#157,.T.);
#207=CARTESIAN_POINT('',(145.0,1.775679E-014,12.000000000000002));
#208=VERTEX_POINT('',#207);
#209=CARTESIAN_POINT('',(145.0,1.775679E-014,12.000000000000002));
#210=DIRECTION('',(0.0,0.0,-1.0));
#211=VECTOR('',#210,4.500000000000002);
#212=LINE('',#209,#211);
#213=EDGE_CURVE('',#208,#142,#212,.T.);
#214=ORIENTED_EDGE('',*,*,#213,.F.);
#215=CARTESIAN_POINT('',(0.0,0.0,12.000000000000002));
#216=DIRECTION('',(0.0,0.0,-1.0));
#217=DIRECTION('',(-1.0,0.0,0.0));
#218=AXIS2_PLACEMENT_3D('',#215,#216,#217);
#219=CIRCLE('',#218,145.0);
#220=EDGE_CURVE('',#208,#199,#219,.T.);
#221=ORIENTED_EDGE('',*,*,#220,.T.);
#222=EDGE_LOOP('',(#205,#206,#214,#221));
#223=FACE_OUTER_BOUND('',#222,.T.);
#224=ADVANCED_FACE('',(#223),#197,.T.);
#225=CARTESIAN_POINT('',(0.0,0.0,12.000000000000002));
#226=DIRECTION('',(0.0,0.0,-1.0));
#227=DIRECTION('',(-1.0,0.0,0.0));
#228=AXIS2_PLACEMENT_3D('',#225,#226,#227);
#229=CYLINDRICAL_SURFACE('',#228,143.0);
#230=CARTESIAN_POINT('',(-143.0,-1.751187E-014,10.000000000000002));
#231=VERTEX_POINT('',#230);
#232=CARTESIAN_POINT('',(-143.0,-1.751187E-014,12.000000000000002));
#233=VERTEX_POINT('',#232);
#234=CARTESIAN_POINT('',(-143.0,-1.751187E-014,10.000000000000002));
#235=DIRECTION('',(0.0,0.0,1.0));
#236=VECTOR('',#235,2.0);
#237=LINE('',#234,#236);
#238=EDGE_CURVE('',#231,#233,#237,.T.);
#239=ORIENTED_EDGE('',*,*,#238,.F.);
#240=CARTESIAN_POINT('',(143.0,1.751187E-014,10.0));
#241=VERTEX_POINT('',#240);
#242=CARTESIAN_POINT('',(0.0,0.0,10.000000000000002));
#243=DIRECTION('',(0.0,0.0,1.0));
#244=DIRECTION('',(-1.0,0.0,0.0));
#245=AXIS2_PLACEMENT_3D('',#242,#243,#244);
#246=CIRCLE('',#245,143.0);
#247=EDGE_CURVE('',#241,#231,#246,.T.);
#248=ORIENTED_EDGE('',*,*,#247,.F.);
#249=CARTESIAN_POINT('',(143.0,1.751187E-014,12.000000000000002));
#250=VERTEX_POINT('',#249);
#251=CARTESIAN_POINT('',(143.0,1.751187E-014,12.000000000000002));
#252=DIRECTION('',(0.0,0.0,-1.0));
#253=VECTOR('',#252,2.000000000000002);
#254=LINE('',#251,#253);
#255=EDGE_CURVE('',#250,#241,#254,.T.);
#256=ORIENTED_EDGE('',*,*,#255,.F.);
#257=CARTESIAN_POINT('',(0.0,0.0,12.000000000000002));
#258=DIRECTION('',(0.0,0.0,-1.0));
#259=DIRECTION('',(-1.0,0.0,0.0));
#260=AXIS2_PLACEMENT_3D('',#257,#258,#259);
#261=CIRCLE('',#260,143.0);
#262=EDGE_CURVE('',#233,#250,#261,.T.);
#263=ORIENTED_EDGE('',*,*,#262,.F.);
#264=EDGE_LOOP('',(#239,#248,#256,#263));
#265=FACE_OUTER_BOUND('',#264,.T.);
#266=ADVANCED_FACE('',(#265),#229,.F.);
#267=CARTESIAN_POINT('',(0.0,0.0,12.000000000000002));
#268=DIRECTION('',(0.0,0.0,-1.0));
#269=DIRECTION('',(-1.0,0.0,0.0));
#270=AXIS2_PLACEMENT_3D('',#267,#268,#269);
#271=CYLINDRICAL_SURFACE('',#270,137.500000000000000);
#272=CARTESIAN_POINT('',(-137.500000000000000,-1.683834E-014,12.0));
#273=VERTEX_POINT('',#272);
#274=CARTESIAN_POINT('',(-137.500000000000000,-1.683834E-014,10.0));
#275=VERTEX_POINT('',#274);
#276=CARTESIAN_POINT('',(-137.500000000000000,-1.683834E-014,12.0));
#277=DIRECTION('',(0.0,0.0,-1.0));
#278=VECTOR('',#277,2.0);
#279=LINE('',#276,#278);
#280=EDGE_CURVE('',#273,#275,#279,.T.);
#281=ORIENTED_EDGE('',*,*,#280,.F.);
#282=CARTESIAN_POINT('',(137.500000000000000,1.683834E-014,12.000000000000002));
#283=VERTEX_POINT('',#282);
#284=CARTESIAN_POINT('',(0.0,0.0,12.000000000000002));
#285=DIRECTION('',(0.0,0.0,1.0));
#286=DIRECTION('',(-1.0,0.0,0.0));
#287=AXIS2_PLACEMENT_3D('',#284,#285,#286);
#288=CIRCLE('',#287,137.500000000000000);
#289=EDGE_CURVE('',#283,#273,#288,.T.);
#290=ORIENTED_EDGE('',*,*,#289,.F.);
#291=CARTESIAN_POINT('',(137.500000000000000,1.683834E-014,10.0));
#292=VERTEX_POINT('',#291);
#293=CARTESIAN_POINT('',(137.500000000000000,1.683834E-014,10.0));
#294=DIRECTION('',(0.0,0.0,1.0));
#295=VECTOR('',#294,2.000000000000002);
#296=LINE('',#293,#295);
#297=EDGE_CURVE('',#292,#283,#296,.T.);
#298=ORIENTED_EDGE('',*,*,#297,.F.);
#299=CARTESIAN_POINT('',(0.0,0.0,10.0));
#300=DIRECTION('',(0.0,0.0,1.0));
#301=DIRECTION('',(-1.0,0.0,0.0));
#302=AXIS2_PLACEMENT_3D('',#299,#300,#301);
#303=CIRCLE('',#302,137.500000000000000);
#304=EDGE_CURVE('',#292,#275,#303,.T.);
#305=ORIENTED_EDGE('',*,*,#304,.T.);
#306=EDGE_LOOP('',(#281,#290,#298,#305));
#307=FACE_OUTER_BOUND('',#306,.T.);
#308=ADVANCED_FACE('',(#307),#271,.T.);
#309=CARTESIAN_POINT('',(0.0,0.0,0.0));
#310=DIRECTION('',(0.0,0.0,1.0));
#311=DIRECTION('',(1.0,0.0,0.0));
#312=AXIS2_PLACEMENT_3D('',#309,#310,#311);
#313=CYLINDRICAL_SURFACE('',#312,130.500000000000000);
#314=CARTESIAN_POINT('',(130.500000000000000,-1.598111E-014,4.500000000000000));
#315=VERTEX_POINT('',#314);
#316=CARTESIAN_POINT('',(130.500000000000000,-1.598111E-014,0.0));
#317=VERTEX_POINT('',#316);
#318=CARTESIAN_POINT('',(130.500000000000000,-1.598111E-014,4.500000000000000));
#319=DIRECTION('',(0.0,0.0,-1.0));
#320=VECTOR('',#319,4.500000000000000);
#321=LINE('',#318,#320);
#322=EDGE_CURVE('',#315,#317,#321,.T.);
#323=ORIENTED_EDGE('',*,*,#322,.F.);
#324=CARTESIAN_POINT('',(-130.500000000000000,1.598111E-014,4.500000000000000));
#325=VERTEX_POINT('',#324);
#326=CARTESIAN_POINT('',(0.0,0.0,4.500000000000000));
#327=DIRECTION('',(0.0,0.0,-1.0));
#328=DIRECTION('',(1.0,0.0,0.0));
#329=AXIS2_PLACEMENT_3D('',#326,#327,#328);
#330=CIRCLE('',#329,130.500000000000000);
#331=EDGE_CURVE('',#325,#315,#330,.T.);
#332=ORIENTED_EDGE('',*,*,#331,.F.);
#333=CARTESIAN_POINT('',(-130.500000000000000,1.598111E-014,0.0));
#334=VERTEX_POINT('',#333);
#335=CARTESIAN_POINT('',(-130.500000000000000,1.598111E-014,0.0));
#336=DIRECTION('',(0.0,0.0,1.0));
#337=VECTOR('',#336,4.500000000000000);
#338=LINE('',#335,#337);
#339=EDGE_CURVE('',#334,#325,#338,.T.);
#340=ORIENTED_EDGE('',*,*,#339,.F.);
#341=CARTESIAN_POINT('',(0.0,0.0,0.0));
#342=DIRECTION('',(0.0,0.0,1.0));
#343=DIRECTION('',(1.0,0.0,0.0));
#344=AXIS2_PLACEMENT_3D('',#341,#342,#343);
#345=CIRCLE('',#344,130.500000000000000);
#346=EDGE_CURVE('',#317,#334,#345,.T.);
#347=ORIENTED_EDGE('',*,*,#346,.F.);
#348=EDGE_LOOP('',(#323,#332,#340,#347));
#349=FACE_OUTER_BOUND('',#348,.T.);
#350=ADVANCED_FACE('',(#349),#313,.F.);
#351=CARTESIAN_POINT('',(0.0,0.0,0.0));
#352=DIRECTION('',(0.0,0.0,1.0));
#353=DIRECTION('',(1.0,0.0,0.0));
#354=AXIS2_PLACEMENT_3D('',#351,#352,#353);
#355=CYLINDRICAL_SURFACE('',#354,125.500000000000000);
#356=CARTESIAN_POINT('',(125.500000000000000,-1.536881E-014,0.0));
#357=VERTEX_POINT('',#356);
#358=CARTESIAN_POINT('',(125.500000000000000,-1.536881E-014,4.500000000000000));
#359=VERTEX_POINT('',#358);
#360=CARTESIAN_POINT('',(125.500000000000000,-1.536881E-014,0.0));
#361=DIRECTION('',(0.0,0.0,1.0));
#362=VECTOR('',#361,4.500000000000000);
#363=LINE('',#360,#362);
#364=EDGE_CURVE('',#357,#359,#363,.T.);
#365=ORIENTED_EDGE('',*,*,#364,.F.);
#366=CARTESIAN_POINT('',(-125.500000000000000,1.536881E-014,0.0));
#367=VERTEX_POINT('',#366);
#368=CARTESIAN_POINT('',(0.0,0.0,0.0));
#369=DIRECTION('',(0.0,0.0,-1.0));
#370=DIRECTION('',(1.0,0.0,0.0));
#371=AXIS2_PLACEMENT_3D('',#368,#369,#370);
#372=CIRCLE('',#371,125.500000000000000);
#373=EDGE_CURVE('',#367,#357,#372,.T.);
#374=ORIENTED_EDGE('',*,*,#373,.F.);
#375=CARTESIAN_POINT('',(-125.500000000000000,1.536881E-014,4.500000000000000));
#376=VERTEX_POINT('',#375);
#377=CARTESIAN_POINT('',(-125.500000000000000,1.536881E-014,4.500000000000000));
#378=DIRECTION('',(0.0,0.0,-1.0));
#379=VECTOR('',#378,4.500000000000000);
#380=LINE('',#377,#379);
#381=EDGE_CURVE('',#376,#367,#380,.T.);
#382=ORIENTED_EDGE('',*,*,#381,.F.);
#383=CARTESIAN_POINT('',(0.0,0.0,4.500000000000000));
#384=DIRECTION('',(0.0,0.0,-1.0));
#385=DIRECTION('',(1.0,0.0,0.0));
#386=AXIS2_PLACEMENT_3D('',#383,#384,#385);
#387=CIRCLE('',#386,125.500000000000000);
#388=EDGE_CURVE('',#376,#359,#387,.T.);
#389=ORIENTED_EDGE('',*,*,#388,.T.);
#390=EDGE_LOOP('',(#365,#374,#382,#389));
#391=FACE_OUTER_BOUND('',#390,.T.);
#392=ADVANCED_FACE('',(#391),#355,.T.);
#393=CARTESIAN_POINT('',(0.0,0.0,0.0));
#394=DIRECTION('',(0.0,0.0,1.0));
#395=DIRECTION('',(-1.0,0.0,0.0));
#396=AXIS2_PLACEMENT_3D('',#393,#394,#395);
#397=CYLINDRICAL_SURFACE('',#396,145.0);
#398=CARTESIAN_POINT('',(-145.0,1.775679E-014,0.0));
#399=VERTEX_POINT('',#398);
#400=CARTESIAN_POINT('',(-145.0,-1.775679E-014,2.500000000000000));
#401=VERTEX_POINT('',#400);
#402=CARTESIAN_POINT('',(-145.0,1.775679E-014,0.0));
#403=DIRECTION('',(0.0,0.0,1.0));
#404=VECTOR('',#403,2.500000000000000);
#405=LINE('',#402,#404);
#406=EDGE_CURVE('',#399,#401,#405,.T.);
#407=ORIENTED_EDGE('',*,*,#406,.F.);
#408=CARTESIAN_POINT('',(145.0,1.775679E-014,0.0));
#409=VERTEX_POINT('',#408);
#410=CARTESIAN_POINT('',(0.0,0.0,0.0));
#411=DIRECTION('',(0.0,0.0,-1.0));
#412=DIRECTION('',(-1.0,0.0,0.0));
#413=AXIS2_PLACEMENT_3D('',#410,#411,#412);
#414=CIRCLE('',#413,145.0);
#415=EDGE_CURVE('',#409,#399,#414,.T.);
#416=ORIENTED_EDGE('',*,*,#415,.F.);
#417=CARTESIAN_POINT('',(145.0,0.0,2.500000000000000));
#418=VERTEX_POINT('',#417);
#419=CARTESIAN_POINT('',(145.0,0.0,2.500000000000000));
#420=DIRECTION('',(0.0,0.0,-1.0));
#421=VECTOR('',#420,2.500000000000000);
#422=LINE('',#419,#421);
#423=EDGE_CURVE('',#418,#409,#422,.T.);
#424=ORIENTED_EDGE('',*,*,#423,.F.);
#425=CARTESIAN_POINT('',(0.0,0.0,2.500000000000000));
#426=DIRECTION('',(0.0,0.0,-1.0));
#427=DIRECTION('',(-1.0,0.0,0.0));
#428=AXIS2_PLACEMENT_3D('',#425,#426,#427);
#429=CIRCLE('',#428,145.0);
#430=EDGE_CURVE('',#418,#401,#429,.T.);
#431=ORIENTED_EDGE('',*,*,#430,.T.);
#432=EDGE_LOOP('',(#407,#416,#424,#431));
#433=FACE_OUTER_BOUND('',#432,.T.);
#434=ADVANCED_FACE('',(#433),#397,.T.);
#435=CARTESIAN_POINT('',(0.0,0.0,5.0));
#436=DIRECTION('',(0.0,0.0,-1.0));
#437=DIRECTION('',(-1.0,0.0,0.0));
#438=AXIS2_PLACEMENT_3D('',#435,#436,#437);
#439=TOROIDAL_SURFACE('',#438,145.0,2.500000000000000);
#440=ORIENTED_EDGE('',*,*,#179,.T.);
#441=CARTESIAN_POINT('',(145.0,1.775679E-014,5.0));
#442=DIRECTION('',(0.0,1.0,0.0));
#443=DIRECTION('',(1.0,0.0,0.0));
#444=AXIS2_PLACEMENT_3D('',#441,#442,#443);
#445=CIRCLE('',#444,2.500000000000000);
#446=EDGE_CURVE('',#418,#131,#445,.T.);
#447=ORIENTED_EDGE('',*,*,#446,.F.);
#448=CARTESIAN_POINT('',(0.0,0.0,2.500000000000000));
#449=DIRECTION('',(0.0,0.0,-1.0));
#450=DIRECTION('',(-1.0,0.0,0.0));
#451=AXIS2_PLACEMENT_3D('',#448,#449,#450);
#452=CIRCLE('',#451,145.0);
#453=EDGE_CURVE('',#401,#418,#452,.T.);
#454=ORIENTED_EDGE('',*,*,#453,.F.);
#455=CARTESIAN_POINT('',(-145.0,-1.775679E-014,5.0));
#456=DIRECTION('',(0.0,1.0,0.0));
#457=DIRECTION('',(-1.0,0.0,0.0));
#458=AXIS2_PLACEMENT_3D('',#455,#456,#457);
#459=CIRCLE('',#458,2.500000000000000);
#460=EDGE_CURVE('',#133,#401,#459,.T.);
#461=ORIENTED_EDGE('',*,*,#460,.F.);
#462=EDGE_LOOP('',(#440,#447,#454,#461));
#463=FACE_OUTER_BOUND('',#462,.T.);
#464=ADVANCED_FACE('',(#463),#439,.F.);
#465=CARTESIAN_POINT('',(0.0,0.0,5.0));
#466=DIRECTION('',(0.0,0.0,-1.0));
#467=DIRECTION('',(-1.0,0.0,0.0));
#468=AXIS2_PLACEMENT_3D('',#465,#466,#467);
#469=TOROIDAL_SURFACE('',#468,145.0,2.500000000000000);
#470=ORIENTED_EDGE('',*,*,#139,.T.);
#471=ORIENTED_EDGE('',*,*,#460,.T.);
#472=ORIENTED_EDGE('',*,*,#430,.F.);
#473=ORIENTED_EDGE('',*,*,#446,.T.);
#474=EDGE_LOOP('',(#470,#471,#472,#473));
#475=FACE_OUTER_BOUND('',#474,.T.);
#476=ADVANCED_FACE('',(#475),#469,.F.);
#477=CARTESIAN_POINT('',(0.0,0.0,0.0));
#478=DIRECTION('',(0.0,0.0,1.0));
#479=DIRECTION('',(-1.0,0.0,0.0));
#480=AXIS2_PLACEMENT_3D('',#477,#478,#479);
#481=CYLINDRICAL_SURFACE('',#480,145.0);
#482=ORIENTED_EDGE('',*,*,#406,.T.);
#483=ORIENTED_EDGE('',*,*,#453,.T.);
#484=ORIENTED_EDGE('',*,*,#423,.T.);
#485=CARTESIAN_POINT('',(0.0,0.0,0.0));
#486=DIRECTION('',(0.0,0.0,-1.0));
#487=DIRECTION('',(-1.0,0.0,0.0));
#488=AXIS2_PLACEMENT_3D('',#485,#486,#487);
#489=CIRCLE('',#488,145.0);
#490=EDGE_CURVE('',#399,#409,#489,.T.);
#491=ORIENTED_EDGE('',*,*,#490,.F.);
#492=EDGE_LOOP('',(#482,#483,#484,#491));
#493=FACE_OUTER_BOUND('',#492,.T.);
#494=ADVANCED_FACE('',(#493),#481,.T.);
#495=CARTESIAN_POINT('',(0.0,0.0,0.0));
#496=DIRECTION('',(0.0,0.0,1.0));
#497=DIRECTION('',(1.0,0.0,0.0));
#498=AXIS2_PLACEMENT_3D('',#495,#496,#497);
#499=CYLINDRICAL_SURFACE('',#498,125.500000000000000);
#500=ORIENTED_EDGE('',*,*,#364,.T.);
#501=CARTESIAN_POINT('',(0.0,0.0,4.500000000000000));
#502=DIRECTION('',(0.0,0.0,-1.0));
#503=DIRECTION('',(1.0,0.0,0.0));
#504=AXIS2_PLACEMENT_3D('',#501,#502,#503);
#505=CIRCLE('',#504,125.500000000000000);
#506=EDGE_CURVE('',#359,#376,#505,.T.);
#507=ORIENTED_EDGE('',*,*,#506,.T.);
#508=ORIENTED_EDGE('',*,*,#381,.T.);
#509=CARTESIAN_POINT('',(0.0,0.0,0.0));
#510=DIRECTION('',(0.0,0.0,-1.0));
#511=DIRECTION('',(1.0,0.0,0.0));
#512=AXIS2_PLACEMENT_3D('',#509,#510,#511);
#513=CIRCLE('',#512,125.500000000000000);
#514=EDGE_CURVE('',#357,#367,#513,.T.);
#515=ORIENTED_EDGE('',*,*,#514,.F.);
#516=EDGE_LOOP('',(#500,#507,#508,#515));
#517=FACE_OUTER_BOUND('',#516,.T.);
#518=ADVANCED_FACE('',(#517),#499,.T.);
#519=CARTESIAN_POINT('',(0.0,0.0,0.0));
#520=DIRECTION('',(0.0,0.0,1.0));
#521=DIRECTION('',(1.0,0.0,0.0));
#522=AXIS2_PLACEMENT_3D('',#519,#520,#521);
#523=CYLINDRICAL_SURFACE('',#522,130.500000000000000);
#524=ORIENTED_EDGE('',*,*,#322,.T.);
#525=CARTESIAN_POINT('',(0.0,0.0,0.0));
#526=DIRECTION('',(0.0,0.0,1.0));
#527=DIRECTION('',(1.0,0.0,0.0));
#528=AXIS2_PLACEMENT_3D('',#525,#526,#527);
#529=CIRCLE('',#528,130.500000000000000);
#530=EDGE_CURVE('',#334,#317,#529,.T.);
#531=ORIENTED_EDGE('',*,*,#530,.F.);
#532=ORIENTED_EDGE('',*,*,#339,.T.);
#533=CARTESIAN_POINT('',(0.0,0.0,4.500000000000000));
#534=DIRECTION('',(0.0,0.0,-1.0));
#535=DIRECTION('',(1.0,0.0,0.0));
#536=AXIS2_PLACEMENT_3D('',#533,#534,#535);
#537=CIRCLE('',#536,130.500000000000000);
#538=EDGE_CURVE('',#315,#325,#537,.T.);
#539=ORIENTED_EDGE('',*,*,#538,.F.);
#540=EDGE_LOOP('',(#524,#531,#532,#539));
#541=FACE_OUTER_BOUND('',#540,.T.);
#542=ADVANCED_FACE('',(#541),#523,.F.);
#543=CARTESIAN_POINT('',(-11.863636363636363,8.074349E-016,4.500000000000000));
#544=DIRECTION('',(0.0,0.0,1.0));
#545=DIRECTION('',(1.0,0.0,0.0));
#546=AXIS2_PLACEMENT_3D('',#543,#544,#545);
#547=PLANE('',#546);
#548=ORIENTED_EDGE('',*,*,#331,.T.);
#549=ORIENTED_EDGE('',*,*,#538,.T.);
#550=EDGE_LOOP('',(#548,#549));
#551=FACE_OUTER_BOUND('',#550,.T.);
#552=ORIENTED_EDGE('',*,*,#388,.F.);
#553=ORIENTED_EDGE('',*,*,#506,.F.);
#554=EDGE_LOOP('',(#552,#553));
#555=FACE_BOUND('',#554,.T.);
#556=ADVANCED_FACE('',(#551,#555),#547,.F.);
#557=CARTESIAN_POINT('',(13.181818181818183,3.229740E-015,0.0));
#558=DIRECTION('',(0.0,0.0,1.0));
#559=DIRECTION('',(1.0,0.0,0.0));
#560=AXIS2_PLACEMENT_3D('',#557,#558,#559);
#561=PLANE('',#560);
#562=ORIENTED_EDGE('',*,*,#415,.T.);
#563=ORIENTED_EDGE('',*,*,#490,.T.);
#564=EDGE_LOOP('',(#562,#563));
#565=FACE_OUTER_BOUND('',#564,.T.);
#566=ORIENTED_EDGE('',*,*,#530,.T.);
#567=ORIENTED_EDGE('',*,*,#346,.T.);
#568=EDGE_LOOP('',(#566,#567));
#569=FACE_BOUND('',#568,.T.);
#570=ADVANCED_FACE('',(#565,#569),#561,.F.);
#571=CARTESIAN_POINT('',(0.0,0.0,12.000000000000002));
#572=DIRECTION('',(0.0,0.0,-1.0));
#573=DIRECTION('',(-1.0,0.0,0.0));
#574=AXIS2_PLACEMENT_3D('',#571,#572,#573);
#575=CYLINDRICAL_SURFACE('',#574,137.500000000000000);
#576=ORIENTED_EDGE('',*,*,#280,.T.);
#577=CARTESIAN_POINT('',(0.0,0.0,10.0));
#578=DIRECTION('',(0.0,0.0,1.0));
#579=DIRECTION('',(-1.0,0.0,0.0));
#580=AXIS2_PLACEMENT_3D('',#577,#578,#579);
#581=CIRCLE('',#580,137.500000000000000);
#582=EDGE_CURVE('',#275,#292,#581,.T.);
#583=ORIENTED_EDGE('',*,*,#582,.T.);
#584=ORIENTED_EDGE('',*,*,#297,.T.);
#585=CARTESIAN_POINT('',(0.0,0.0,12.000000000000002));
#586=DIRECTION('',(0.0,0.0,1.0));
#587=DIRECTION('',(-1.0,0.0,0.0));
#588=AXIS2_PLACEMENT_3D('',#585,#586,#587);
#589=CIRCLE('',#588,137.500000000000000);
#590=EDGE_CURVE('',#273,#283,#589,.T.);
#591=ORIENTED_EDGE('',*,*,#590,.F.);
#592=EDGE_LOOP('',(#576,#583,#584,#591));
#593=FACE_OUTER_BOUND('',#592,.T.);
#594=ADVANCED_FACE('',(#593),#575,.T.);
#595=CARTESIAN_POINT('',(0.0,0.0,12.000000000000002));
#596=DIRECTION('',(0.0,0.0,-1.0));
#597=DIRECTION('',(-1.0,0.0,0.0));
#598=AXIS2_PLACEMENT_3D('',#595,#596,#597);
#599=CYLINDRICAL_SURFACE('',#598,143.0);
#600=ORIENTED_EDGE('',*,*,#238,.T.);
#601=CARTESIAN_POINT('',(0.0,0.0,12.000000000000002));
#602=DIRECTION('',(0.0,0.0,-1.0));
#603=DIRECTION('',(-1.0,0.0,0.0));
#604=AXIS2_PLACEMENT_3D('',#601,#602,#603);
#605=CIRCLE('',#604,143.0);
#606=EDGE_CURVE('',#250,#233,#605,.T.);
#607=ORIENTED_EDGE('',*,*,#606,.F.);
#608=ORIENTED_EDGE('',*,*,#255,.T.);
#609=CARTESIAN_POINT('',(0.0,0.0,10.000000000000002));
#610=DIRECTION('',(0.0,0.0,1.0));
#611=DIRECTION('',(-1.0,0.0,0.0));
#612=AXIS2_PLACEMENT_3D('',#609,#610,#611);
#613=CIRCLE('',#612,143.0);
#614=EDGE_CURVE('',#231,#241,#613,.T.);
#615=ORIENTED_EDGE('',*,*,#614,.F.);
#616=EDGE_LOOP('',(#600,#607,#608,#615));
#617=FACE_OUTER_BOUND('',#616,.T.);
#618=ADVANCED_FACE('',(#617),#599,.F.);
#619=CARTESIAN_POINT('',(12.999999999999998,0.0,10.0));
#620=DIRECTION('',(0.0,0.0,1.0));
#621=DIRECTION('',(1.0,0.0,0.0));
#622=AXIS2_PLACEMENT_3D('',#619,#620,#621);
#623=PLANE('',#622);
#624=ORIENTED_EDGE('',*,*,#247,.T.);
#625=ORIENTED_EDGE('',*,*,#614,.T.);
#626=EDGE_LOOP('',(#624,#625));
#627=FACE_OUTER_BOUND('',#626,.T.);
#628=ORIENTED_EDGE('',*,*,#304,.F.);
#629=ORIENTED_EDGE('',*,*,#582,.F.);
#630=EDGE_LOOP('',(#628,#629));
#631=FACE_BOUND('',#630,.T.);
#632=ADVANCED_FACE('',(#627,#631),#623,.T.);
#633=CARTESIAN_POINT('',(13.181818181818183,3.229740E-015,12.000000000000002));
#634=DIRECTION('',(0.0,0.0,1.0));
#635=DIRECTION('',(1.0,0.0,0.0));
#636=AXIS2_PLACEMENT_3D('',#633,#634,#635);
#637=PLANE('',#636);
#638=ORIENTED_EDGE('',*,*,#220,.F.);
#639=CARTESIAN_POINT('',(0.0,0.0,12.000000000000002));
#640=DIRECTION('',(0.0,0.0,-1.0));
#641=DIRECTION('',(-1.0,0.0,0.0));
#642=AXIS2_PLACEMENT_3D('',#639,#640,#641);
#643=CIRCLE('',#642,145.0);
#644=EDGE_CURVE('',#199,#208,#643,.T.);
#645=ORIENTED_EDGE('',*,*,#644,.F.);
#646=EDGE_LOOP('',(#638,#645));
#647=FACE_OUTER_BOUND('',#646,.T.);
#648=ORIENTED_EDGE('',*,*,#606,.T.);
#649=ORIENTED_EDGE('',*,*,#262,.T.);
#650=EDGE_LOOP('',(#648,#649));
#651=FACE_BOUND('',#650,.T.);
#652=ADVANCED_FACE('',(#647,#651),#637,.T.);
#653=CARTESIAN_POINT('',(0.0,0.0,0.0));
#654=DIRECTION('',(0.0,0.0,1.0));
#655=DIRECTION('',(-1.0,0.0,0.0));
#656=AXIS2_PLACEMENT_3D('',#653,#654,#655);
#657=CYLINDRICAL_SURFACE('',#656,145.0);
#658=ORIENTED_EDGE('',*,*,#204,.T.);
#659=ORIENTED_EDGE('',*,*,#644,.T.);
#660=ORIENTED_EDGE('',*,*,#213,.T.);
#661=ORIENTED_EDGE('',*,*,#187,.T.);
#662=EDGE_LOOP('',(#658,#659,#660,#661));
#663=FACE_OUTER_BOUND('',#662,.T.);
#664=ADVANCED_FACE('',(#663),#657,.T.);
#665=CARTESIAN_POINT('',(13.181818181818183,3.229740E-015,12.000000000000002));
#666=DIRECTION('',(0.0,0.0,1.0));
#667=DIRECTION('',(1.0,0.0,0.0));
#668=AXIS2_PLACEMENT_3D('',#665,#666,#667);
#669=PLANE('',#668);
#670=ORIENTED_EDGE('',*,*,#289,.T.);
#671=ORIENTED_EDGE('',*,*,#590,.T.);
#672=EDGE_LOOP('',(#670,#671));
#673=FACE_OUTER_BOUND('',#672,.T.);
#674=ADVANCED_FACE('',(#673),#669,.T.);
#675=CARTESIAN_POINT('',(13.181818181818183,3.229740E-015,0.0));
#676=DIRECTION('',(0.0,0.0,1.0));
#677=DIRECTION('',(1.0,0.0,0.0));
#678=AXIS2_PLACEMENT_3D('',#675,#676,#677);
#679=PLANE('',#678);
#680=ORIENTED_EDGE('',*,*,#373,.T.);
#681=ORIENTED_EDGE('',*,*,#514,.T.);
#682=EDGE_LOOP('',(#680,#681));
#683=FACE_OUTER_BOUND('',#682,.T.);
#684=ADVANCED_FACE('',(#683),#679,.F.);
#685=CLOSED_SHELL('',(#168,#192,#224,#266,#308,#350,#392,#434,#464,#476,#494,#518,#542,#556,#570,#594,#618,#632,#652,#664,#674,#684));
#686=MANIFOLD_SOLID_BREP('',#685);
#687=ADVANCED_BREP_SHAPE_REPRESENTATION('ABSR',(#686),#117);
#688=SHAPE_REPRESENTATION_RELATIONSHIP('SRR','None',#687,#122);
ENDSEC;
END-ISO-10303-21;
