ISO-10303-21;
HEADER;
FILE_DESCRIPTION (( 'STEP AP214' ),
    '1' );
FILE_NAME ('490DFL160-G-S5.stp',
    '2017-10-11T10:23:49',
    ( '' ),
    ( '' ),
    'SwSTEP 2.0',
    'SolidWorks 2015',
    '' );
FILE_SCHEMA (( 'AUTOMOTIVE_DESIGN' ));
ENDSEC;

DATA;
#1 = EDGE_LOOP ( 'NONE', ( #49, #98, #71, #100 ) ) ;
#2 =( NAMED_UNIT ( * ) SI_UNIT ( $, .STERADIAN. ) SOLID_ANGLE_UNIT ( ) );
#3 = AXIS2_PLACEMENT_3D ( 'NONE', #22, #29, #192 ) ;
#4 = CARTESIAN_POINT ( 'NONE',  ( 0.0000000000000000000, 0.0000000000000000000, -2.000000000000000000 ) ) ;
#5 = DIRECTION ( 'NONE',  ( 1.000000000000000000, 0.0000000000000000000, 0.0000000000000000000 ) ) ;
#6 = LINE ( 'NONE', #91, #138 ) ;
#7 = DIRECTION ( 'NONE',  ( 0.0000000000000000000, 0.0000000000000000000, 1.000000000000000000 ) ) ;
#8 =( LENGTH_UNIT ( ) NAMED_UNIT ( * ) SI_UNIT ( .MILLI., .METRE. ) );
#9 = EDGE_CURVE ( 'NONE', #58, #16, #39, .T. ) ;
#10 = CARTESIAN_POINT ( 'NONE',  ( 0.0000000000000000000, 0.0000000000000000000, 0.0000000000000000000 ) ) ;
#11 = ORIENTED_EDGE ( 'NONE', *, *, #172, .T. ) ;
#12 = MECHANICAL_DESIGN_GEOMETRIC_PRESENTATION_REPRESENTATION (  '', ( #124 ), #181 ) ;
#13 = DIRECTION ( 'NONE',  ( 0.0000000000000000000, 0.0000000000000000000, 1.000000000000000000 ) ) ;
#14 = PRODUCT_CONTEXT ( 'NONE', #154, 'mechanical' ) ;
#15 = CIRCLE ( 'NONE', #178, 85.62500000000000000 ) ;
#16 = VERTEX_POINT ( 'NONE', #63 ) ;
#17 = EDGE_LOOP ( 'NONE', ( #200, #27 ) ) ;
#18 = EDGE_CURVE ( 'NONE', #16, #102, #6, .T. ) ;
#19 = CARTESIAN_POINT ( 'NONE',  ( 85.62500000000000000, 0.0000000000000000000, -2.000000000000000000 ) ) ;
#20 = ADVANCED_BREP_SHAPE_REPRESENTATION ( '490DFL160-G-S5', ( #84, #31 ), #80 ) ;
#21 = DIRECTION ( 'NONE',  ( 1.000000000000000000, 0.0000000000000000000, 0.0000000000000000000 ) ) ;
#22 = CARTESIAN_POINT ( 'NONE',  ( 0.0000000000000000000, 0.0000000000000000000, 0.0000000000000000000 ) ) ;
#23 = DIRECTION ( 'NONE',  ( 0.0000000000000000000, 0.0000000000000000000, 1.000000000000000000 ) ) ;
#24 = CARTESIAN_POINT ( 'NONE',  ( 85.62500000000000000, 0.0000000000000000000, -2.000000000000000000 ) ) ;
#25 = CARTESIAN_POINT ( 'NONE',  ( 85.62500000000000000, 0.0000000000000000000, 0.0000000000000000000 ) ) ;
#26 = EDGE_CURVE ( 'NONE', #16, #58, #157, .T. ) ;
#27 = ORIENTED_EDGE ( 'NONE', *, *, #75, .F. ) ;
#28 = ORIENTED_EDGE ( 'NONE', *, *, #213, .F. ) ;
#29 = DIRECTION ( 'NONE',  ( 0.0000000000000000000, 0.0000000000000000000, 1.000000000000000000 ) ) ;
#30 = SURFACE_STYLE_FILL_AREA ( #195 ) ;
#31 = AXIS2_PLACEMENT_3D ( 'NONE', #203, #151, #165 ) ;
#32 =( NAMED_UNIT ( * ) PLANE_ANGLE_UNIT ( ) SI_UNIT ( $, .RADIAN. ) );
#33 = FILL_AREA_STYLE_COLOUR ( '', #54 ) ;
#34 = ORIENTED_EDGE ( 'NONE', *, *, #97, .F. ) ;
#35 = PRODUCT_RELATED_PRODUCT_CATEGORY ( 'part', '', ( #81 ) ) ;
#36 = DIRECTION ( 'NONE',  ( 1.000000000000000000, 0.0000000000000000000, -0.0000000000000000000 ) ) ;
#37 = PLANE ( 'NONE',  #153 ) ;
#38 = DIRECTION ( 'NONE',  ( 1.000000000000000000, 0.0000000000000000000, 0.0000000000000000000 ) ) ;
#39 = CIRCLE ( 'NONE', #185, 76.20000000000000300 ) ;
#40 = CARTESIAN_POINT ( 'NONE',  ( -85.62500000000000000, 1.048603821769921300E-014, 0.0000000000000000000 ) ) ;
#41 = ORIENTED_EDGE ( 'NONE', *, *, #26, .F. ) ;
#42 = VERTEX_POINT ( 'NONE', #24 ) ;
#43 = ORIENTED_EDGE ( 'NONE', *, *, #57, .T. ) ;
#44 = AXIS2_PLACEMENT_3D ( 'NONE', #10, #23, #112 ) ;
#45 = CARTESIAN_POINT ( 'NONE',  ( -85.62500000000000000, 1.048603821769921300E-014, -2.000000000000000000 ) ) ;
#46 = LINE ( 'NONE', #190, #202 ) ;
#47 =( NAMED_UNIT ( * ) SI_UNIT ( $, .STERADIAN. ) SOLID_ANGLE_UNIT ( ) );
#48 = CIRCLE ( 'NONE', #122, 85.62500000000000000 ) ;
#49 = ORIENTED_EDGE ( 'NONE', *, *, #82, .F. ) ;
#50 = DIRECTION ( 'NONE',  ( 1.000000000000000000, 0.0000000000000000000, 0.0000000000000000000 ) ) ;
#51 = PRODUCT_DEFINITION_CONTEXT ( 'detailed design', #134, 'design' ) ;
#52 = ORIENTED_EDGE ( 'NONE', *, *, #82, .T. ) ;
#53 = PRESENTATION_LAYER_ASSIGNMENT (  '', '', ( #124 ) ) ;
#54 = COLOUR_RGB ( '',0.7254901960784313500, 0.4470588235294117300, 0.3686274509803921800 ) ;
#55 = DIRECTION ( 'NONE',  ( 0.0000000000000000000, 0.0000000000000000000, 1.000000000000000000 ) ) ;
#56 = ORIENTED_EDGE ( 'NONE', *, *, #57, .F. ) ;
#57 = EDGE_CURVE ( 'NONE', #42, #142, #15, .T. ) ;
#58 = VERTEX_POINT ( 'NONE', #131 ) ;
#59 = ORIENTED_EDGE ( 'NONE', *, *, #118, .F. ) ;
#60 = SURFACE_STYLE_USAGE ( .BOTH. , #74 ) ;
#61 = ORIENTED_EDGE ( 'NONE', *, *, #97, .T. ) ;
#62 = AXIS2_PLACEMENT_3D ( 'NONE', #147, #7, #212 ) ;
#63 = CARTESIAN_POINT ( 'NONE',  ( 76.20000000000000300, 0.0000000000000000000, -2.000000000000000000 ) ) ;
#64 = SURFACE_STYLE_USAGE ( .BOTH. , #89 ) ;
#65 = ADVANCED_FACE ( 'NONE', ( #93 ), #214, .T. ) ;
#66 = ORIENTED_EDGE ( 'NONE', *, *, #18, .F. ) ;
#67 =( LENGTH_UNIT ( ) NAMED_UNIT ( * ) SI_UNIT ( .MILLI., .METRE. ) );
#68 = CIRCLE ( 'NONE', #3, 85.62500000000000000 ) ;
#69 = PRESENTATION_LAYER_ASSIGNMENT (  '', '', ( #137 ) ) ;
#70 = CARTESIAN_POINT ( 'NONE',  ( 0.0000000000000000000, 0.0000000000000000000, -2.000000000000000000 ) ) ;
#71 = ORIENTED_EDGE ( 'NONE', *, *, #118, .T. ) ;
#72 = ADVANCED_FACE ( 'NONE', ( #155 ), #167, .T. ) ;
#73 = ADVANCED_FACE ( 'NONE', ( #210 ), #179, .F. ) ;
#74 = SURFACE_SIDE_STYLE ('',( #30 ) ) ;
#75 = EDGE_CURVE ( 'NONE', #194, #102, #186, .T. ) ;
#76 = PRESENTATION_STYLE_ASSIGNMENT (( #60 ) ) ;
#77 = ADVANCED_FACE ( 'NONE', ( #189, #156 ), #37, .T. ) ;
#78 = UNCERTAINTY_MEASURE_WITH_UNIT (LENGTH_MEASURE( 1.000000000000000100E-005 ), #208, 'distance_accuracy_value', 'NONE');
#79 = FACE_BOUND ( 'NONE', #90, .T. ) ;
#80 =( GEOMETRIC_REPRESENTATION_CONTEXT ( 3 ) GLOBAL_UNCERTAINTY_ASSIGNED_CONTEXT ( ( #170 ) ) GLOBAL_UNIT_ASSIGNED_CONTEXT ( ( #8, #143, #2 ) ) REPRESENTATION_CONTEXT ( 'NONE', 'WORKASPACE' ) );
#81 = PRODUCT ( '490DFL160-G-S5', '490DFL160-G-S5', '', ( #14 ) ) ;
#82 = EDGE_CURVE ( 'NONE', #142, #196, #198, .T. ) ;
#83 = EDGE_LOOP ( 'NONE', ( #56, #28 ) ) ;
#84 = MANIFOLD_SOLID_BREP ( 'Aufsatz-Linear austragen1', #123 ) ;
#85 = VECTOR ( 'NONE', #180, 1000.000000000000000 ) ;
#86 = DIRECTION ( 'NONE',  ( 1.000000000000000000, 0.0000000000000000000, 0.0000000000000000000 ) ) ;
#87 = ADVANCED_FACE ( 'NONE', ( #211 ), #130, .F. ) ;
#88 = DIRECTION ( 'NONE',  ( 1.000000000000000000, 0.0000000000000000000, 0.0000000000000000000 ) ) ;
#89 = SURFACE_SIDE_STYLE ('',( #162 ) ) ;
#90 = EDGE_LOOP ( 'NONE', ( #125, #119 ) ) ;
#91 = CARTESIAN_POINT ( 'NONE',  ( 76.20000000000000300, 0.0000000000000000000, -2.000000000000000000 ) ) ;
#92 = DIRECTION ( 'NONE',  ( 0.0000000000000000000, 0.0000000000000000000, 1.000000000000000000 ) ) ;
#93 = FACE_OUTER_BOUND ( 'NONE', #1, .T. ) ;
#94 =( NAMED_UNIT ( * ) PLANE_ANGLE_UNIT ( ) SI_UNIT ( $, .RADIAN. ) );
#95 = APPLICATION_PROTOCOL_DEFINITION ( 'draft international standard', 'automotive_design', 1998, #134 ) ;
#96 = LINE ( 'NONE', #19, #85 ) ;
#97 = EDGE_CURVE ( 'NONE', #58, #194, #46, .T. ) ;
#98 = ORIENTED_EDGE ( 'NONE', *, *, #213, .T. ) ;
#99 = PRODUCT_DEFINITION ( 'UNKNOWN', '', #126, #51 ) ;
#100 = ORIENTED_EDGE ( 'NONE', *, *, #201, .F. ) ;
#101 = AXIS2_PLACEMENT_3D ( 'NONE', #129, #175, #38 ) ;
#102 = VERTEX_POINT ( 'NONE', #144 ) ;
#103 = CARTESIAN_POINT ( 'NONE',  ( 0.0000000000000000000, 0.0000000000000000000, 0.0000000000000000000 ) ) ;
#104 = CARTESIAN_POINT ( 'NONE',  ( 0.0000000000000000000, 0.0000000000000000000, -2.000000000000000000 ) ) ;
#105 = EDGE_LOOP ( 'NONE', ( #150, #61, #115, #66 ) ) ;
#106 = AXIS2_PLACEMENT_3D ( 'NONE', #113, #206, #36 ) ;
#107 = DIRECTION ( 'NONE',  ( 1.000000000000000000, 0.0000000000000000000, -0.0000000000000000000 ) ) ;
#108 = FACE_OUTER_BOUND ( 'NONE', #83, .T. ) ;
#109 = DIRECTION ( 'NONE',  ( 0.0000000000000000000, 0.0000000000000000000, 1.000000000000000000 ) ) ;
#110 = EDGE_LOOP ( 'NONE', ( #11, #204 ) ) ;
#111 = AXIS2_PLACEMENT_3D ( 'NONE', #127, #191, #152 ) ;
#112 = DIRECTION ( 'NONE',  ( 1.000000000000000000, 0.0000000000000000000, 0.0000000000000000000 ) ) ;
#113 = CARTESIAN_POINT ( 'NONE',  ( 0.0000000000000000000, 0.0000000000000000000, -2.000000000000000000 ) ) ;
#114 = AXIS2_PLACEMENT_3D ( 'NONE', #184, #145, #183 ) ;
#115 = ORIENTED_EDGE ( 'NONE', *, *, #75, .T. ) ;
#116 = CARTESIAN_POINT ( 'NONE',  ( -85.62500000000000000, 1.048603821769921300E-014, -2.000000000000000000 ) ) ;
#117 = DIRECTION ( 'NONE',  ( 0.0000000000000000000, 0.0000000000000000000, 1.000000000000000000 ) ) ;
#118 = EDGE_CURVE ( 'NONE', #42, #139, #96, .T. ) ;
#119 = ORIENTED_EDGE ( 'NONE', *, *, #9, .T. ) ;
#120 = CIRCLE ( 'NONE', #62, 76.20000000000000300 ) ;
#121 = ORIENTED_EDGE ( 'NONE', *, *, #172, .F. ) ;
#122 = AXIS2_PLACEMENT_3D ( 'NONE', #177, #55, #21 ) ;
#123 = CLOSED_SHELL ( 'NONE', ( #87, #72, #65, #135, #77, #73 ) ) ;
#124 = STYLED_ITEM ( 'NONE', ( #164 ), #84 ) ;
#125 = ORIENTED_EDGE ( 'NONE', *, *, #26, .T. ) ;
#126 = PRODUCT_DEFINITION_FORMATION_WITH_SPECIFIED_SOURCE ( 'ANY', '', #81, .NOT_KNOWN. ) ;
#127 = CARTESIAN_POINT ( 'NONE',  ( 0.0000000000000000000, 0.0000000000000000000, -2.000000000000000000 ) ) ;
#128 = AXIS2_PLACEMENT_3D ( 'NONE', #133, #207, #88 ) ;
#129 = CARTESIAN_POINT ( 'NONE',  ( 0.0000000000000000000, 0.0000000000000000000, 0.0000000000000000000 ) ) ;
#130 = CYLINDRICAL_SURFACE ( 'NONE', #114, 76.20000000000000300 ) ;
#131 = CARTESIAN_POINT ( 'NONE',  ( -76.20000000000000300, 9.331808609502832200E-015, -2.000000000000000000 ) ) ;
#132 = EDGE_LOOP ( 'NONE', ( #43, #52, #121, #59 ) ) ;
#133 = CARTESIAN_POINT ( 'NONE',  ( 0.0000000000000000000, 0.0000000000000000000, -2.000000000000000000 ) ) ;
#134 = APPLICATION_CONTEXT ( 'automotive_design' ) ;
#135 = ADVANCED_FACE ( 'NONE', ( #79, #108 ), #176, .F. ) ;
#136 = ORIENTED_EDGE ( 'NONE', *, *, #158, .T. ) ;
#137 = STYLED_ITEM ( 'NONE', ( #76 ), #20 ) ;
#138 = VECTOR ( 'NONE', #13, 1000.000000000000000 ) ;
#139 = VERTEX_POINT ( 'NONE', #25 ) ;
#140 = SHAPE_DEFINITION_REPRESENTATION ( #160, #20 ) ;
#141 =( NAMED_UNIT ( * ) SI_UNIT ( $, .STERADIAN. ) SOLID_ANGLE_UNIT ( ) );
#142 = VERTEX_POINT ( 'NONE', #45 ) ;
#143 =( NAMED_UNIT ( * ) PLANE_ANGLE_UNIT ( ) SI_UNIT ( $, .RADIAN. ) );
#144 = CARTESIAN_POINT ( 'NONE',  ( 76.20000000000000300, 0.0000000000000000000, 0.0000000000000000000 ) ) ;
#145 = DIRECTION ( 'NONE',  ( 0.0000000000000000000, 0.0000000000000000000, 1.000000000000000000 ) ) ;
#146 = EDGE_LOOP ( 'NONE', ( #34, #41, #188, #136 ) ) ;
#147 = CARTESIAN_POINT ( 'NONE',  ( 0.0000000000000000000, 0.0000000000000000000, 0.0000000000000000000 ) ) ;
#148 = DIRECTION ( 'NONE',  ( 0.0000000000000000000, 0.0000000000000000000, 1.000000000000000000 ) ) ;
#149 = MECHANICAL_DESIGN_GEOMETRIC_PRESENTATION_REPRESENTATION (  '', ( #137 ), #171 ) ;
#150 = ORIENTED_EDGE ( 'NONE', *, *, #9, .F. ) ;
#151 = DIRECTION ( 'NONE',  ( 0.0000000000000000000, 0.0000000000000000000, 1.000000000000000000 ) ) ;
#152 = DIRECTION ( 'NONE',  ( 1.000000000000000000, 0.0000000000000000000, 0.0000000000000000000 ) ) ;
#153 = AXIS2_PLACEMENT_3D ( 'NONE', #103, #92, #107 ) ;
#154 = APPLICATION_CONTEXT ( 'automotive_design' ) ;
#155 = FACE_OUTER_BOUND ( 'NONE', #132, .T. ) ;
#156 = FACE_OUTER_BOUND ( 'NONE', #110, .T. ) ;
#157 = CIRCLE ( 'NONE', #163, 76.20000000000000300 ) ;
#158 = EDGE_CURVE ( 'NONE', #102, #194, #120, .T. ) ;
#159 = CIRCLE ( 'NONE', #44, 85.62500000000000000 ) ;
#160 = PRODUCT_DEFINITION_SHAPE ( 'NONE', 'NONE',  #99 ) ;
#161 = CARTESIAN_POINT ( 'NONE',  ( -76.20000000000000300, 9.331808609502832200E-015, 0.0000000000000000000 ) ) ;
#162 = SURFACE_STYLE_FILL_AREA ( #205 ) ;
#163 = AXIS2_PLACEMENT_3D ( 'NONE', #104, #109, #50 ) ;
#164 = PRESENTATION_STYLE_ASSIGNMENT (( #64 ) ) ;
#165 = DIRECTION ( 'NONE',  ( 1.000000000000000000, 0.0000000000000000000, 0.0000000000000000000 ) ) ;
#166 = DIRECTION ( 'NONE',  ( 0.0000000000000000000, 0.0000000000000000000, 1.000000000000000000 ) ) ;
#167 = CYLINDRICAL_SURFACE ( 'NONE', #128, 85.62500000000000000 ) ;
#168 = DIRECTION ( 'NONE',  ( 0.0000000000000000000, 0.0000000000000000000, 1.000000000000000000 ) ) ;
#169 = VECTOR ( 'NONE', #197, 1000.000000000000000 ) ;
#170 = UNCERTAINTY_MEASURE_WITH_UNIT (LENGTH_MEASURE( 1.000000000000000100E-005 ), #8, 'distance_accuracy_value', 'NONE');
#171 =( GEOMETRIC_REPRESENTATION_CONTEXT ( 3 ) GLOBAL_UNCERTAINTY_ASSIGNED_CONTEXT ( ( #187 ) ) GLOBAL_UNIT_ASSIGNED_CONTEXT ( ( #67, #94, #47 ) ) REPRESENTATION_CONTEXT ( 'NONE', 'WORKASPACE' ) );
#172 = EDGE_CURVE ( 'NONE', #139, #196, #159, .T. ) ;
#173 = FILL_AREA_STYLE_COLOUR ( '', #199 ) ;
#174 = DIRECTION ( 'NONE',  ( 1.000000000000000000, 0.0000000000000000000, 0.0000000000000000000 ) ) ;
#175 = DIRECTION ( 'NONE',  ( 0.0000000000000000000, 0.0000000000000000000, 1.000000000000000000 ) ) ;
#176 = PLANE ( 'NONE',  #106 ) ;
#177 = CARTESIAN_POINT ( 'NONE',  ( 0.0000000000000000000, 0.0000000000000000000, -2.000000000000000000 ) ) ;
#178 = AXIS2_PLACEMENT_3D ( 'NONE', #209, #117, #174 ) ;
#179 = CYLINDRICAL_SURFACE ( 'NONE', #193, 76.20000000000000300 ) ;
#180 = DIRECTION ( 'NONE',  ( 0.0000000000000000000, 0.0000000000000000000, 1.000000000000000000 ) ) ;
#181 =( GEOMETRIC_REPRESENTATION_CONTEXT ( 3 ) GLOBAL_UNCERTAINTY_ASSIGNED_CONTEXT ( ( #78 ) ) GLOBAL_UNIT_ASSIGNED_CONTEXT ( ( #208, #32, #141 ) ) REPRESENTATION_CONTEXT ( 'NONE', 'WORKASPACE' ) );
#182 = APPLICATION_PROTOCOL_DEFINITION ( 'draft international standard', 'automotive_design', 1998, #154 ) ;
#183 = DIRECTION ( 'NONE',  ( 1.000000000000000000, 0.0000000000000000000, 0.0000000000000000000 ) ) ;
#184 = CARTESIAN_POINT ( 'NONE',  ( 0.0000000000000000000, 0.0000000000000000000, -2.000000000000000000 ) ) ;
#185 = AXIS2_PLACEMENT_3D ( 'NONE', #70, #168, #5 ) ;
#186 = CIRCLE ( 'NONE', #101, 76.20000000000000300 ) ;
#187 = UNCERTAINTY_MEASURE_WITH_UNIT (LENGTH_MEASURE( 1.000000000000000100E-005 ), #67, 'distance_accuracy_value', 'NONE');
#188 = ORIENTED_EDGE ( 'NONE', *, *, #18, .T. ) ;
#189 = FACE_BOUND ( 'NONE', #17, .T. ) ;
#190 = CARTESIAN_POINT ( 'NONE',  ( -76.20000000000000300, 9.331808609502832200E-015, -2.000000000000000000 ) ) ;
#191 = DIRECTION ( 'NONE',  ( 0.0000000000000000000, 0.0000000000000000000, 1.000000000000000000 ) ) ;
#192 = DIRECTION ( 'NONE',  ( 1.000000000000000000, 0.0000000000000000000, 0.0000000000000000000 ) ) ;
#193 = AXIS2_PLACEMENT_3D ( 'NONE', #4, #166, #86 ) ;
#194 = VERTEX_POINT ( 'NONE', #161 ) ;
#195 = FILL_AREA_STYLE ('',( #33 ) ) ;
#196 = VERTEX_POINT ( 'NONE', #40 ) ;
#197 = DIRECTION ( 'NONE',  ( 0.0000000000000000000, 0.0000000000000000000, 1.000000000000000000 ) ) ;
#198 = LINE ( 'NONE', #116, #169 ) ;
#199 = COLOUR_RGB ( '',0.7254901960784313500, 0.4470588235294117300, 0.3686274509803921800 ) ;
#200 = ORIENTED_EDGE ( 'NONE', *, *, #158, .F. ) ;
#201 = EDGE_CURVE ( 'NONE', #196, #139, #68, .T. ) ;
#202 = VECTOR ( 'NONE', #148, 1000.000000000000000 ) ;
#203 = CARTESIAN_POINT ( 'NONE',  ( 0.0000000000000000000, 0.0000000000000000000, 0.0000000000000000000 ) ) ;
#204 = ORIENTED_EDGE ( 'NONE', *, *, #201, .T. ) ;
#205 = FILL_AREA_STYLE ('',( #173 ) ) ;
#206 = DIRECTION ( 'NONE',  ( 0.0000000000000000000, 0.0000000000000000000, 1.000000000000000000 ) ) ;
#207 = DIRECTION ( 'NONE',  ( 0.0000000000000000000, 0.0000000000000000000, 1.000000000000000000 ) ) ;
#208 =( LENGTH_UNIT ( ) NAMED_UNIT ( * ) SI_UNIT ( .MILLI., .METRE. ) );
#209 = CARTESIAN_POINT ( 'NONE',  ( 0.0000000000000000000, 0.0000000000000000000, -2.000000000000000000 ) ) ;
#210 = FACE_OUTER_BOUND ( 'NONE', #146, .T. ) ;
#211 = FACE_OUTER_BOUND ( 'NONE', #105, .T. ) ;
#212 = DIRECTION ( 'NONE',  ( 1.000000000000000000, 0.0000000000000000000, 0.0000000000000000000 ) ) ;
#213 = EDGE_CURVE ( 'NONE', #142, #42, #48, .T. ) ;
#214 = CYLINDRICAL_SURFACE ( 'NONE', #111, 85.62500000000000000 ) ;
ENDSEC;
END-ISO-10303-21;
