ISO-10303-21;
HEADER;
FILE_DESCRIPTION (( 'STEP AP214' ),
    '1' );
FILE_NAME ('103DOR010-S1.step',
    '2017-07-06T09:25:20',
    ( 'install' ),
    ( '' ),
    'SwSTEP 2.0',
    'SolidWorks 2015',
    '' );
FILE_SCHEMA (( 'AUTOMOTIVE_DESIGN' ));
ENDSEC;

DATA;
#1 = ORIENTED_EDGE ( 'NONE', *, *, #78, .T. ) ;
#2 = DIRECTION ( 'NONE',  ( 1.000000000000000000, 0.0000000000000000000, 0.0000000000000000000 ) ) ;
#3 = AXIS2_PLACEMENT_3D ( 'NONE', #20, #125, #32 ) ;
#4 = CARTESIAN_POINT ( 'NONE',  ( -10.00000000000000000, 1.224646799147353300E-015, 0.0000000000000000000 ) ) ;
#5 = DIRECTION ( 'NONE',  ( 1.224646799147353200E-016, 1.000000000000000000, 0.0000000000000000000 ) ) ;
#6 = FILL_AREA_STYLE_COLOUR ( '', #100 ) ;
#7 = DIRECTION ( 'NONE',  ( 1.000000000000000000, 0.0000000000000000000, 0.0000000000000000000 ) ) ;
#8 = EDGE_CURVE ( 'NONE', #134, #10, #158, .T. ) ;
#9 = AXIS2_PLACEMENT_3D ( 'NONE', #123, #157, #46 ) ;
#10 = VERTEX_POINT ( 'NONE', #118 ) ;
#11 = ORIENTED_EDGE ( 'NONE', *, *, #49, .T. ) ;
#12 = DIRECTION ( 'NONE',  ( -0.0000000000000000000, -0.0000000000000000000, 1.000000000000000000 ) ) ;
#13 = APPLICATION_CONTEXT ( 'automotive_design' ) ;
#14 = APPLICATION_PROTOCOL_DEFINITION ( 'draft international standard', 'automotive_design', 1998, #95 ) ;
#15 =( NAMED_UNIT ( * ) SI_UNIT ( $, .STERADIAN. ) SOLID_ANGLE_UNIT ( ) );
#16 =( GEOMETRIC_REPRESENTATION_CONTEXT ( 3 ) GLOBAL_UNCERTAINTY_ASSIGNED_CONTEXT ( ( #135 ) ) GLOBAL_UNIT_ASSIGNED_CONTEXT ( ( #37, #87, #18 ) ) REPRESENTATION_CONTEXT ( 'NONE', 'WORKASPACE' ) );
#17 = CARTESIAN_POINT ( 'NONE',  ( 7.500000000000000000, 0.0000000000000000000, -3.061616997868382600E-016 ) ) ;
#18 =( NAMED_UNIT ( * ) SI_UNIT ( $, .STERADIAN. ) SOLID_ANGLE_UNIT ( ) );
#19 = ORIENTED_EDGE ( 'NONE', *, *, #23, .T. ) ;
#20 = CARTESIAN_POINT ( 'NONE',  ( 0.0000000000000000000, 0.0000000000000000000, 0.0000000000000000000 ) ) ;
#21 = CIRCLE ( 'NONE', #113, 12.50000000000000000 ) ;
#22 = CARTESIAN_POINT ( 'NONE',  ( 0.0000000000000000000, 0.0000000000000000000, 0.0000000000000000000 ) ) ;
#23 = EDGE_CURVE ( 'NONE', #140, #69, #72, .T. ) ;
#24 = AXIS2_PLACEMENT_3D ( 'NONE', #156, #47, #108 ) ;
#25 = ORIENTED_EDGE ( 'NONE', *, *, #82, .F. ) ;
#26 = DIRECTION ( 'NONE',  ( -0.0000000000000000000, -0.0000000000000000000, 1.000000000000000000 ) ) ;
#27 = CARTESIAN_POINT ( 'NONE',  ( -12.50000000000000000, 1.530808498934191500E-015, 0.0000000000000000000 ) ) ;
#28 = DIRECTION ( 'NONE',  ( 0.0000000000000000000, -1.000000000000000000, 0.0000000000000000000 ) ) ;
#29 = ADVANCED_BREP_SHAPE_REPRESENTATION ( '103DOR010-S1', ( #128, #115 ), #16 ) ;
#30 = CARTESIAN_POINT ( 'NONE',  ( 0.0000000000000000000, 0.0000000000000000000, 0.0000000000000000000 ) ) ;
#31 = CARTESIAN_POINT ( 'NONE',  ( 10.00000000000000000, 0.0000000000000000000, 0.0000000000000000000 ) ) ;
#32 = DIRECTION ( 'NONE',  ( 1.000000000000000000, 0.0000000000000000000, 0.0000000000000000000 ) ) ;
#33 = TOROIDAL_SURFACE ( 'NONE', #131, 10.00000000000000000, 2.500000000000000000 ) ;
#34 = STYLED_ITEM ( 'NONE', ( #155 ), #128 ) ;
#35 = ORIENTED_EDGE ( 'NONE', *, *, #102, .F. ) ;
#36 = FACE_OUTER_BOUND ( 'NONE', #45, .T. ) ;
#37 =( LENGTH_UNIT ( ) NAMED_UNIT ( * ) SI_UNIT ( .MILLI., .METRE. ) );
#38 =( NAMED_UNIT ( * ) PLANE_ANGLE_UNIT ( ) SI_UNIT ( $, .RADIAN. ) );
#39 = DIRECTION ( 'NONE',  ( 0.0000000000000000000, 0.0000000000000000000, -1.000000000000000000 ) ) ;
#40 = CARTESIAN_POINT ( 'NONE',  ( 0.0000000000000000000, 0.0000000000000000000, -3.061616997868383100E-016 ) ) ;
#41 = PRESENTATION_LAYER_ASSIGNMENT (  '', '', ( #34 ) ) ;
#42 = ORIENTED_EDGE ( 'NONE', *, *, #56, .T. ) ;
#43 = DIRECTION ( 'NONE',  ( -0.0000000000000000000, -0.0000000000000000000, 1.000000000000000000 ) ) ;
#44 = DIRECTION ( 'NONE',  ( 0.0000000000000000000, 0.0000000000000000000, -1.000000000000000000 ) ) ;
#45 = EDGE_LOOP ( 'NONE', ( #71, #25, #19, #92 ) ) ;
#46 = DIRECTION ( 'NONE',  ( 1.000000000000000000, 0.0000000000000000000, 0.0000000000000000000 ) ) ;
#47 = DIRECTION ( 'NONE',  ( -0.0000000000000000000, -0.0000000000000000000, 1.000000000000000000 ) ) ;
#48 = AXIS2_PLACEMENT_3D ( 'NONE', #4, #5, #83 ) ;
#49 = EDGE_CURVE ( 'NONE', #134, #140, #68, .T. ) ;
#50 = SHAPE_DEFINITION_REPRESENTATION ( #110, #29 ) ;
#51 = CIRCLE ( 'NONE', #98, 2.500000000000000000 ) ;
#52 = ORIENTED_EDGE ( 'NONE', *, *, #49, .F. ) ;
#53 = ORIENTED_EDGE ( 'NONE', *, *, #55, .F. ) ;
#54 = MECHANICAL_DESIGN_GEOMETRIC_PRESENTATION_REPRESENTATION (  '', ( #34 ), #60 ) ;
#55 = EDGE_CURVE ( 'NONE', #10, #69, #51, .T. ) ;
#56 = EDGE_CURVE ( 'NONE', #10, #134, #21, .T. ) ;
#57 = PRODUCT ( '103DOR010-S1', '103DOR010-S1', '', ( #63 ) ) ;
#58 = COLOUR_RGB ( '',0.3843137254901960500, 0.3843137254901960500, 0.3843137254901960500 ) ;
#59 = DIRECTION ( 'NONE',  ( 1.224646799147353200E-016, 1.000000000000000000, 0.0000000000000000000 ) ) ;
#60 =( GEOMETRIC_REPRESENTATION_CONTEXT ( 3 ) GLOBAL_UNCERTAINTY_ASSIGNED_CONTEXT ( ( #61 ) ) GLOBAL_UNIT_ASSIGNED_CONTEXT ( ( #75, #38, #15 ) ) REPRESENTATION_CONTEXT ( 'NONE', 'WORKASPACE' ) );
#61 = UNCERTAINTY_MEASURE_WITH_UNIT (LENGTH_MEASURE( 1.000000000000000100E-005 ), #75, 'distance_accuracy_value', 'NONE');
#62 = UNCERTAINTY_MEASURE_WITH_UNIT (LENGTH_MEASURE( 1.000000000000000100E-005 ), #70, 'distance_accuracy_value', 'NONE');
#63 = PRODUCT_CONTEXT ( 'NONE', #95, 'mechanical' ) ;
#64 = FACE_OUTER_BOUND ( 'NONE', #142, .T. ) ;
#65 = APPLICATION_PROTOCOL_DEFINITION ( 'draft international standard', 'automotive_design', 1998, #13 ) ;
#66 = ORIENTED_EDGE ( 'NONE', *, *, #8, .T. ) ;
#67 = SURFACE_STYLE_USAGE ( .BOTH. , #106 ) ;
#68 = CIRCLE ( 'NONE', #48, 2.500000000000000400 ) ;
#69 = VERTEX_POINT ( 'NONE', #17 ) ;
#70 =( LENGTH_UNIT ( ) NAMED_UNIT ( * ) SI_UNIT ( .MILLI., .METRE. ) );
#71 = ORIENTED_EDGE ( 'NONE', *, *, #8, .F. ) ;
#72 = CIRCLE ( 'NONE', #89, 7.500000000000000000 ) ;
#73 = STYLED_ITEM ( 'NONE', ( #96 ), #29 ) ;
#74 = ADVANCED_FACE ( 'NONE', ( #64 ), #33, .T. ) ;
#75 =( LENGTH_UNIT ( ) NAMED_UNIT ( * ) SI_UNIT ( .MILLI., .METRE. ) );
#76 = FACE_OUTER_BOUND ( 'NONE', #120, .T. ) ;
#77 = SURFACE_STYLE_FILL_AREA ( #116 ) ;
#78 = EDGE_CURVE ( 'NONE', #69, #140, #126, .T. ) ;
#79 = PRESENTATION_LAYER_ASSIGNMENT (  '', '', ( #73 ) ) ;
#80 = EDGE_LOOP ( 'NONE', ( #137, #35, #1, #117 ) ) ;
#81 =( NAMED_UNIT ( * ) PLANE_ANGLE_UNIT ( ) SI_UNIT ( $, .RADIAN. ) );
#82 = EDGE_CURVE ( 'NONE', #140, #134, #88, .T. ) ;
#83 = DIRECTION ( 'NONE',  ( -1.000000000000000000, 1.224646799147353500E-016, 0.0000000000000000000 ) ) ;
#84 = ADVANCED_FACE ( 'NONE', ( #36 ), #94, .T. ) ;
#85 = MECHANICAL_DESIGN_GEOMETRIC_PRESENTATION_REPRESENTATION (  '', ( #73 ), #93 ) ;
#86 = PRODUCT_DEFINITION_CONTEXT ( 'detailed design', #13, 'design' ) ;
#87 =( NAMED_UNIT ( * ) PLANE_ANGLE_UNIT ( ) SI_UNIT ( $, .RADIAN. ) );
#88 = CIRCLE ( 'NONE', #143, 2.500000000000000400 ) ;
#89 = AXIS2_PLACEMENT_3D ( 'NONE', #40, #12, #138 ) ;
#90 = ADVANCED_FACE ( 'NONE', ( #76 ), #152, .T. ) ;
#91 = DIRECTION ( 'NONE',  ( -0.0000000000000000000, -0.0000000000000000000, 1.000000000000000000 ) ) ;
#92 = ORIENTED_EDGE ( 'NONE', *, *, #102, .T. ) ;
#93 =( GEOMETRIC_REPRESENTATION_CONTEXT ( 3 ) GLOBAL_UNCERTAINTY_ASSIGNED_CONTEXT ( ( #62 ) ) GLOBAL_UNIT_ASSIGNED_CONTEXT ( ( #70, #81, #107 ) ) REPRESENTATION_CONTEXT ( 'NONE', 'WORKASPACE' ) );
#94 = TOROIDAL_SURFACE ( 'NONE', #3, 10.00000000000000000, 2.500000000000000000 ) ;
#95 = APPLICATION_CONTEXT ( 'automotive_design' ) ;
#96 = PRESENTATION_STYLE_ASSIGNMENT (( #67 ) ) ;
#97 = SURFACE_STYLE_USAGE ( .BOTH. , #109 ) ;
#98 = AXIS2_PLACEMENT_3D ( 'NONE', #31, #28, #39 ) ;
#99 = DIRECTION ( 'NONE',  ( -1.000000000000000000, 1.224646799147353500E-016, 0.0000000000000000000 ) ) ;
#100 = COLOUR_RGB ( '',0.3843137254901960500, 0.3843137254901960500, 0.3843137254901960500 ) ;
#101 = ORIENTED_EDGE ( 'NONE', *, *, #78, .F. ) ;
#102 = EDGE_CURVE ( 'NONE', #69, #10, #151, .T. ) ;
#103 = FACE_OUTER_BOUND ( 'NONE', #80, .T. ) ;
#104 = FILL_AREA_STYLE_COLOUR ( '', #58 ) ;
#105 = ADVANCED_FACE ( 'NONE', ( #103 ), #111, .T. ) ;
#106 = SURFACE_SIDE_STYLE ('',( #77 ) ) ;
#107 =( NAMED_UNIT ( * ) SI_UNIT ( $, .STERADIAN. ) SOLID_ANGLE_UNIT ( ) );
#108 = DIRECTION ( 'NONE',  ( 1.000000000000000000, 0.0000000000000000000, 0.0000000000000000000 ) ) ;
#109 = SURFACE_SIDE_STYLE ('',( #114 ) ) ;
#110 = PRODUCT_DEFINITION_SHAPE ( 'NONE', 'NONE',  #127 ) ;
#111 = TOROIDAL_SURFACE ( 'NONE', #24, 10.00000000000000000, 2.500000000000000000 ) ;
#112 = DIRECTION ( 'NONE',  ( 0.0000000000000000000, -1.000000000000000000, 0.0000000000000000000 ) ) ;
#113 = AXIS2_PLACEMENT_3D ( 'NONE', #149, #150, #148 ) ;
#114 = SURFACE_STYLE_FILL_AREA ( #119 ) ;
#115 = AXIS2_PLACEMENT_3D ( 'NONE', #22, #136, #2 ) ;
#116 = FILL_AREA_STYLE ('',( #104 ) ) ;
#117 = ORIENTED_EDGE ( 'NONE', *, *, #82, .T. ) ;
#118 = CARTESIAN_POINT ( 'NONE',  ( 12.50000000000000000, 0.0000000000000000000, 0.0000000000000000000 ) ) ;
#119 = FILL_AREA_STYLE ('',( #6 ) ) ;
#120 = EDGE_LOOP ( 'NONE', ( #52, #66, #146, #130 ) ) ;
#121 = AXIS2_PLACEMENT_3D ( 'NONE', #132, #91, #145 ) ;
#122 = CARTESIAN_POINT ( 'NONE',  ( 10.00000000000000000, 0.0000000000000000000, 0.0000000000000000000 ) ) ;
#123 = CARTESIAN_POINT ( 'NONE',  ( 0.0000000000000000000, 0.0000000000000000000, 0.0000000000000000000 ) ) ;
#124 = CARTESIAN_POINT ( 'NONE',  ( -7.500000000000000000, 9.184850993605147900E-016, -3.061616997868382600E-016 ) ) ;
#125 = DIRECTION ( 'NONE',  ( -0.0000000000000000000, -0.0000000000000000000, 1.000000000000000000 ) ) ;
#126 = CIRCLE ( 'NONE', #121, 7.500000000000000000 ) ;
#127 = PRODUCT_DEFINITION ( 'UNKNOWN', '', #139, #86 ) ;
#128 = MANIFOLD_SOLID_BREP ( 'Rotation1', #133 ) ;
#129 = AXIS2_PLACEMENT_3D ( 'NONE', #154, #26, #7 ) ;
#130 = ORIENTED_EDGE ( 'NONE', *, *, #23, .F. ) ;
#131 = AXIS2_PLACEMENT_3D ( 'NONE', #30, #43, #144 ) ;
#132 = CARTESIAN_POINT ( 'NONE',  ( 0.0000000000000000000, 0.0000000000000000000, -3.061616997868383100E-016 ) ) ;
#133 = CLOSED_SHELL ( 'NONE', ( #90, #74, #105, #84 ) ) ;
#134 = VERTEX_POINT ( 'NONE', #27 ) ;
#135 = UNCERTAINTY_MEASURE_WITH_UNIT (LENGTH_MEASURE( 1.000000000000000100E-005 ), #37, 'distance_accuracy_value', 'NONE');
#136 = DIRECTION ( 'NONE',  ( 0.0000000000000000000, 0.0000000000000000000, 1.000000000000000000 ) ) ;
#137 = ORIENTED_EDGE ( 'NONE', *, *, #56, .F. ) ;
#138 = DIRECTION ( 'NONE',  ( 1.000000000000000000, 0.0000000000000000000, 0.0000000000000000000 ) ) ;
#139 = PRODUCT_DEFINITION_FORMATION_WITH_SPECIFIED_SOURCE ( 'ANY', '', #57, .NOT_KNOWN. ) ;
#140 = VERTEX_POINT ( 'NONE', #124 ) ;
#141 = CARTESIAN_POINT ( 'NONE',  ( -10.00000000000000000, 1.224646799147353300E-015, 0.0000000000000000000 ) ) ;
#142 = EDGE_LOOP ( 'NONE', ( #53, #42, #11, #101 ) ) ;
#143 = AXIS2_PLACEMENT_3D ( 'NONE', #141, #59, #99 ) ;
#144 = DIRECTION ( 'NONE',  ( 1.000000000000000000, 0.0000000000000000000, 0.0000000000000000000 ) ) ;
#145 = DIRECTION ( 'NONE',  ( 1.000000000000000000, 0.0000000000000000000, 0.0000000000000000000 ) ) ;
#146 = ORIENTED_EDGE ( 'NONE', *, *, #55, .T. ) ;
#147 = PRODUCT_RELATED_PRODUCT_CATEGORY ( 'part', '', ( #57 ) ) ;
#148 = DIRECTION ( 'NONE',  ( 1.000000000000000000, 0.0000000000000000000, 0.0000000000000000000 ) ) ;
#149 = CARTESIAN_POINT ( 'NONE',  ( 0.0000000000000000000, 0.0000000000000000000, 0.0000000000000000000 ) ) ;
#150 = DIRECTION ( 'NONE',  ( -0.0000000000000000000, -0.0000000000000000000, 1.000000000000000000 ) ) ;
#151 = CIRCLE ( 'NONE', #153, 2.500000000000000000 ) ;
#152 = TOROIDAL_SURFACE ( 'NONE', #9, 10.00000000000000000, 2.500000000000000000 ) ;
#153 = AXIS2_PLACEMENT_3D ( 'NONE', #122, #112, #44 ) ;
#154 = CARTESIAN_POINT ( 'NONE',  ( 0.0000000000000000000, 0.0000000000000000000, 0.0000000000000000000 ) ) ;
#155 = PRESENTATION_STYLE_ASSIGNMENT (( #97 ) ) ;
#156 = CARTESIAN_POINT ( 'NONE',  ( 0.0000000000000000000, 0.0000000000000000000, 0.0000000000000000000 ) ) ;
#157 = DIRECTION ( 'NONE',  ( -0.0000000000000000000, -0.0000000000000000000, 1.000000000000000000 ) ) ;
#158 = CIRCLE ( 'NONE', #129, 12.50000000000000000 ) ;
ENDSEC;
END-ISO-10303-21;
