ISO-10303-21;
HEADER;
/* Generated by software containing ST-Developer
 * from STEP Tools, Inc. (www.steptools.com) 
 */

FILE_DESCRIPTION(
/* description */ (''),
/* implementation_level */ '2;1');

FILE_NAME(
/* time_stamp */ '2016-09-27T09:42:54+02:00',
/* organization */ ('Pfeiffer Vacuum'),
/* preprocessor_version */ 'ST-DEVELOPER v15.6',
/* originating_system */ 'Autodesk Inventor 2015',
/* authorisation */ '');

FILE_SCHEMA (('AUTOMOTIVE_DESIGN { 1 0 10303 214 3 1 1 }'));
ENDSEC;

DATA;
#10=MECHANICAL_DESIGN_GEOMETRIC_PRESENTATION_REPRESENTATION('',(#13),#502);
#11=SHAPE_REPRESENTATION_RELATIONSHIP('SRR','None',#511,#12);
#12=ADVANCED_BREP_SHAPE_REPRESENTATION($,(#14),#501);
#13=STYLED_ITEM('',(#520),#14);
#14=MANIFOLD_SOLID_BREP('Volumenk\X\F6rper1',#262);
#15=PLANE('',#272);
#16=PLANE('',#274);
#17=PLANE('',#283);
#18=PLANE('',#290);
#19=PLANE('',#292);
#20=TOROIDAL_SURFACE('',#267,23.5,1.);
#21=TOROIDAL_SURFACE('',#296,26.2411101908653,1.5);
#22=TOROIDAL_SURFACE('',#299,19.55,0.299999999999999);
#23=TOROIDAL_SURFACE('',#303,19.55,0.300000000000005);
#24=FACE_BOUND('',#80,.T.);
#25=FACE_BOUND('',#82,.T.);
#26=FACE_BOUND('',#84,.T.);
#27=FACE_BOUND('',#86,.T.);
#28=FACE_BOUND('',#88,.T.);
#29=FACE_BOUND('',#90,.T.);
#30=FACE_BOUND('',#92,.T.);
#31=FACE_BOUND('',#94,.T.);
#32=FACE_BOUND('',#95,.T.);
#33=FACE_BOUND('',#97,.T.);
#34=FACE_BOUND('',#99,.T.);
#35=FACE_BOUND('',#101,.T.);
#36=FACE_BOUND('',#103,.T.);
#37=FACE_BOUND('',#105,.T.);
#38=FACE_BOUND('',#107,.T.);
#39=FACE_BOUND('',#109,.T.);
#40=FACE_BOUND('',#111,.T.);
#41=FACE_BOUND('',#113,.T.);
#42=FACE_BOUND('',#115,.T.);
#43=FACE_BOUND('',#117,.T.);
#44=FACE_BOUND('',#119,.T.);
#45=FACE_BOUND('',#121,.T.);
#46=B_SPLINE_CURVE_WITH_KNOTS('',3,(#402,#403,#404,#405,#406,#407,#408,
#409,#410,#411,#412,#413,#414,#415,#416,#417,#418,#419),.UNSPECIFIED.,.F.,
 .F.,(4,2,2,2,2,2,2,2,4),(0.452532579170449,0.565665251399085,0.678797923627722,
0.79193154098431,0.905065158340898,1.01819877569749,1.13133239305407,1.24446506528271,
1.35759773751135),.UNSPECIFIED.);
#47=B_SPLINE_CURVE_WITH_KNOTS('',3,(#420,#421,#422,#423,#424,#425,#426,
#427,#428,#429,#430,#431,#432,#433,#434,#435,#436,#437,#438),
 .UNSPECIFIED.,.F.,.F.,(4,2,2,2,3,2,2,2,4),(1.35759773751135,1.47073040973998,
1.58386308196862,1.69699669932521,1.8101303166818,1.92326393403838,2.03639755139497,
2.14953022362361,2.26266289585225),.UNSPECIFIED.);
#48=CYLINDRICAL_SURFACE('',#266,3.);
#49=CYLINDRICAL_SURFACE('',#270,22.5);
#50=CYLINDRICAL_SURFACE('',#277,20.6);
#51=CYLINDRICAL_SURFACE('',#282,24.);
#52=CYLINDRICAL_SURFACE('',#288,20.955);
#53=CYLINDRICAL_SURFACE('',#294,27.5);
#54=CYLINDRICAL_SURFACE('',#301,19.25);
#55=CYLINDRICAL_SURFACE('',#306,17.);
#56=FACE_OUTER_BOUND('',#78,.T.);
#57=FACE_OUTER_BOUND('',#79,.T.);
#58=FACE_OUTER_BOUND('',#81,.T.);
#59=FACE_OUTER_BOUND('',#83,.T.);
#60=FACE_OUTER_BOUND('',#85,.T.);
#61=FACE_OUTER_BOUND('',#87,.T.);
#62=FACE_OUTER_BOUND('',#89,.T.);
#63=FACE_OUTER_BOUND('',#91,.T.);
#64=FACE_OUTER_BOUND('',#93,.T.);
#65=FACE_OUTER_BOUND('',#96,.T.);
#66=FACE_OUTER_BOUND('',#98,.T.);
#67=FACE_OUTER_BOUND('',#100,.T.);
#68=FACE_OUTER_BOUND('',#102,.T.);
#69=FACE_OUTER_BOUND('',#104,.T.);
#70=FACE_OUTER_BOUND('',#106,.T.);
#71=FACE_OUTER_BOUND('',#108,.T.);
#72=FACE_OUTER_BOUND('',#110,.T.);
#73=FACE_OUTER_BOUND('',#112,.T.);
#74=FACE_OUTER_BOUND('',#114,.T.);
#75=FACE_OUTER_BOUND('',#116,.T.);
#76=FACE_OUTER_BOUND('',#118,.T.);
#77=FACE_OUTER_BOUND('',#120,.T.);
#78=EDGE_LOOP('',(#189));
#79=EDGE_LOOP('',(#190,#191));
#80=EDGE_LOOP('',(#192));
#81=EDGE_LOOP('',(#193));
#82=EDGE_LOOP('',(#194));
#83=EDGE_LOOP('',(#195));
#84=EDGE_LOOP('',(#196));
#85=EDGE_LOOP('',(#197));
#86=EDGE_LOOP('',(#198));
#87=EDGE_LOOP('',(#199));
#88=EDGE_LOOP('',(#200));
#89=EDGE_LOOP('',(#201));
#90=EDGE_LOOP('',(#202));
#91=EDGE_LOOP('',(#203));
#92=EDGE_LOOP('',(#204));
#93=EDGE_LOOP('',(#205));
#94=EDGE_LOOP('',(#206,#207));
#95=EDGE_LOOP('',(#208));
#96=EDGE_LOOP('',(#209));
#97=EDGE_LOOP('',(#210));
#98=EDGE_LOOP('',(#211));
#99=EDGE_LOOP('',(#212));
#100=EDGE_LOOP('',(#213));
#101=EDGE_LOOP('',(#214));
#102=EDGE_LOOP('',(#215));
#103=EDGE_LOOP('',(#216));
#104=EDGE_LOOP('',(#217));
#105=EDGE_LOOP('',(#218));
#106=EDGE_LOOP('',(#219));
#107=EDGE_LOOP('',(#220));
#108=EDGE_LOOP('',(#221));
#109=EDGE_LOOP('',(#222));
#110=EDGE_LOOP('',(#223));
#111=EDGE_LOOP('',(#224));
#112=EDGE_LOOP('',(#225));
#113=EDGE_LOOP('',(#226));
#114=EDGE_LOOP('',(#227));
#115=EDGE_LOOP('',(#228));
#116=EDGE_LOOP('',(#229));
#117=EDGE_LOOP('',(#230));
#118=EDGE_LOOP('',(#231));
#119=EDGE_LOOP('',(#232));
#120=EDGE_LOOP('',(#233));
#121=EDGE_LOOP('',(#234));
#122=CIRCLE('',#265,3.);
#123=CIRCLE('',#268,22.5);
#124=CIRCLE('',#269,23.5);
#125=CIRCLE('',#271,22.5);
#126=CIRCLE('',#273,24.);
#127=CIRCLE('',#275,20.6);
#128=CIRCLE('',#276,17.);
#129=CIRCLE('',#278,20.6);
#130=CIRCLE('',#280,24.);
#131=CIRCLE('',#281,23.5);
#132=CIRCLE('',#284,19.55);
#133=CIRCLE('',#286,20.955);
#134=CIRCLE('',#287,19.955);
#135=CIRCLE('',#289,20.955);
#136=CIRCLE('',#291,17.);
#137=CIRCLE('',#293,27.5);
#138=CIRCLE('',#295,27.5);
#139=CIRCLE('',#297,26.629338758519);
#140=CIRCLE('',#300,19.25);
#141=CIRCLE('',#302,19.25);
#142=CIRCLE('',#304,19.4);
#143=VERTEX_POINT('',#397);
#144=VERTEX_POINT('',#400);
#145=VERTEX_POINT('',#401);
#146=VERTEX_POINT('',#440);
#147=VERTEX_POINT('',#442);
#148=VERTEX_POINT('',#445);
#149=VERTEX_POINT('',#448);
#150=VERTEX_POINT('',#451);
#151=VERTEX_POINT('',#453);
#152=VERTEX_POINT('',#456);
#153=VERTEX_POINT('',#459);
#154=VERTEX_POINT('',#461);
#155=VERTEX_POINT('',#465);
#156=VERTEX_POINT('',#468);
#157=VERTEX_POINT('',#470);
#158=VERTEX_POINT('',#473);
#159=VERTEX_POINT('',#476);
#160=VERTEX_POINT('',#479);
#161=VERTEX_POINT('',#482);
#162=VERTEX_POINT('',#485);
#163=VERTEX_POINT('',#489);
#164=VERTEX_POINT('',#492);
#165=VERTEX_POINT('',#495);
#166=EDGE_CURVE('',#143,#143,#122,.T.);
#167=EDGE_CURVE('',#144,#145,#46,.T.);
#168=EDGE_CURVE('',#145,#144,#47,.T.);
#169=EDGE_CURVE('',#146,#146,#123,.T.);
#170=EDGE_CURVE('',#147,#147,#124,.T.);
#171=EDGE_CURVE('',#148,#148,#125,.T.);
#172=EDGE_CURVE('',#149,#149,#126,.T.);
#173=EDGE_CURVE('',#150,#150,#127,.T.);
#174=EDGE_CURVE('',#151,#151,#128,.T.);
#175=EDGE_CURVE('',#152,#152,#129,.T.);
#176=EDGE_CURVE('',#153,#153,#130,.T.);
#177=EDGE_CURVE('',#154,#154,#131,.T.);
#178=EDGE_CURVE('',#155,#155,#132,.T.);
#179=EDGE_CURVE('',#156,#156,#133,.T.);
#180=EDGE_CURVE('',#157,#157,#134,.T.);
#181=EDGE_CURVE('',#158,#158,#135,.T.);
#182=EDGE_CURVE('',#159,#159,#136,.T.);
#183=EDGE_CURVE('',#160,#160,#137,.T.);
#184=EDGE_CURVE('',#161,#161,#138,.T.);
#185=EDGE_CURVE('',#162,#162,#139,.T.);
#186=EDGE_CURVE('',#163,#163,#140,.T.);
#187=EDGE_CURVE('',#164,#164,#141,.T.);
#188=EDGE_CURVE('',#165,#165,#142,.T.);
#189=ORIENTED_EDGE('',*,*,#166,.T.);
#190=ORIENTED_EDGE('',*,*,#167,.F.);
#191=ORIENTED_EDGE('',*,*,#168,.F.);
#192=ORIENTED_EDGE('',*,*,#166,.F.);
#193=ORIENTED_EDGE('',*,*,#169,.T.);
#194=ORIENTED_EDGE('',*,*,#170,.T.);
#195=ORIENTED_EDGE('',*,*,#171,.T.);
#196=ORIENTED_EDGE('',*,*,#169,.F.);
#197=ORIENTED_EDGE('',*,*,#172,.F.);
#198=ORIENTED_EDGE('',*,*,#170,.F.);
#199=ORIENTED_EDGE('',*,*,#173,.T.);
#200=ORIENTED_EDGE('',*,*,#174,.F.);
#201=ORIENTED_EDGE('',*,*,#175,.F.);
#202=ORIENTED_EDGE('',*,*,#173,.F.);
#203=ORIENTED_EDGE('',*,*,#176,.T.);
#204=ORIENTED_EDGE('',*,*,#177,.T.);
#205=ORIENTED_EDGE('',*,*,#172,.T.);
#206=ORIENTED_EDGE('',*,*,#167,.T.);
#207=ORIENTED_EDGE('',*,*,#168,.T.);
#208=ORIENTED_EDGE('',*,*,#176,.F.);
#209=ORIENTED_EDGE('',*,*,#177,.F.);
#210=ORIENTED_EDGE('',*,*,#178,.F.);
#211=ORIENTED_EDGE('',*,*,#179,.T.);
#212=ORIENTED_EDGE('',*,*,#180,.T.);
#213=ORIENTED_EDGE('',*,*,#181,.T.);
#214=ORIENTED_EDGE('',*,*,#179,.F.);
#215=ORIENTED_EDGE('',*,*,#180,.F.);
#216=ORIENTED_EDGE('',*,*,#182,.F.);
#217=ORIENTED_EDGE('',*,*,#183,.F.);
#218=ORIENTED_EDGE('',*,*,#175,.T.);
#219=ORIENTED_EDGE('',*,*,#184,.F.);
#220=ORIENTED_EDGE('',*,*,#183,.T.);
#221=ORIENTED_EDGE('',*,*,#185,.F.);
#222=ORIENTED_EDGE('',*,*,#184,.T.);
#223=ORIENTED_EDGE('',*,*,#171,.F.);
#224=ORIENTED_EDGE('',*,*,#185,.T.);
#225=ORIENTED_EDGE('',*,*,#186,.F.);
#226=ORIENTED_EDGE('',*,*,#178,.T.);
#227=ORIENTED_EDGE('',*,*,#187,.F.);
#228=ORIENTED_EDGE('',*,*,#186,.T.);
#229=ORIENTED_EDGE('',*,*,#188,.F.);
#230=ORIENTED_EDGE('',*,*,#187,.T.);
#231=ORIENTED_EDGE('',*,*,#181,.F.);
#232=ORIENTED_EDGE('',*,*,#188,.T.);
#233=ORIENTED_EDGE('',*,*,#174,.T.);
#234=ORIENTED_EDGE('',*,*,#182,.T.);
#235=CONICAL_SURFACE('',#264,1.5,59.);
#236=CONICAL_SURFACE('',#279,23.75,44.9999999999997);
#237=CONICAL_SURFACE('',#285,20.455,45.);
#238=CONICAL_SURFACE('',#298,24.5646693792595,75.);
#239=CONICAL_SURFACE('',#305,20.1775,60.0000000000001);
#240=ADVANCED_FACE('',(#56),#235,.F.);
#241=ADVANCED_FACE('',(#57,#24),#48,.F.);
#242=ADVANCED_FACE('',(#58,#25),#20,.F.);
#243=ADVANCED_FACE('',(#59,#26),#49,.T.);
#244=ADVANCED_FACE('',(#60,#27),#15,.T.);
#245=ADVANCED_FACE('',(#61,#28),#16,.F.);
#246=ADVANCED_FACE('',(#62,#29),#50,.F.);
#247=ADVANCED_FACE('',(#63,#30),#236,.T.);
#248=ADVANCED_FACE('',(#64,#31,#32),#51,.T.);
#249=ADVANCED_FACE('',(#65,#33),#17,.T.);
#250=ADVANCED_FACE('',(#66,#34),#237,.T.);
#251=ADVANCED_FACE('',(#67,#35),#52,.T.);
#252=ADVANCED_FACE('',(#68,#36),#18,.T.);
#253=ADVANCED_FACE('',(#69,#37),#19,.T.);
#254=ADVANCED_FACE('',(#70,#38),#53,.T.);
#255=ADVANCED_FACE('',(#71,#39),#21,.T.);
#256=ADVANCED_FACE('',(#72,#40),#238,.T.);
#257=ADVANCED_FACE('',(#73,#41),#22,.F.);
#258=ADVANCED_FACE('',(#74,#42),#54,.T.);
#259=ADVANCED_FACE('',(#75,#43),#23,.F.);
#260=ADVANCED_FACE('',(#76,#44),#239,.T.);
#261=ADVANCED_FACE('',(#77,#45),#55,.F.);
#262=CLOSED_SHELL('',(#240,#241,#242,#243,#244,#245,#246,#247,#248,#249,
#250,#251,#252,#253,#254,#255,#256,#257,#258,#259,#260,#261));
#263=AXIS2_PLACEMENT_3D('placement',#395,#307,#308);
#264=AXIS2_PLACEMENT_3D('',#396,#309,#310);
#265=AXIS2_PLACEMENT_3D('',#398,#311,#312);
#266=AXIS2_PLACEMENT_3D('',#399,#313,#314);
#267=AXIS2_PLACEMENT_3D('',#439,#315,#316);
#268=AXIS2_PLACEMENT_3D('',#441,#317,#318);
#269=AXIS2_PLACEMENT_3D('',#443,#319,#320);
#270=AXIS2_PLACEMENT_3D('',#444,#321,#322);
#271=AXIS2_PLACEMENT_3D('',#446,#323,#324);
#272=AXIS2_PLACEMENT_3D('',#447,#325,#326);
#273=AXIS2_PLACEMENT_3D('',#449,#327,#328);
#274=AXIS2_PLACEMENT_3D('',#450,#329,#330);
#275=AXIS2_PLACEMENT_3D('',#452,#331,#332);
#276=AXIS2_PLACEMENT_3D('',#454,#333,#334);
#277=AXIS2_PLACEMENT_3D('',#455,#335,#336);
#278=AXIS2_PLACEMENT_3D('',#457,#337,#338);
#279=AXIS2_PLACEMENT_3D('',#458,#339,#340);
#280=AXIS2_PLACEMENT_3D('',#460,#341,#342);
#281=AXIS2_PLACEMENT_3D('',#462,#343,#344);
#282=AXIS2_PLACEMENT_3D('',#463,#345,#346);
#283=AXIS2_PLACEMENT_3D('',#464,#347,#348);
#284=AXIS2_PLACEMENT_3D('',#466,#349,#350);
#285=AXIS2_PLACEMENT_3D('',#467,#351,#352);
#286=AXIS2_PLACEMENT_3D('',#469,#353,#354);
#287=AXIS2_PLACEMENT_3D('',#471,#355,#356);
#288=AXIS2_PLACEMENT_3D('',#472,#357,#358);
#289=AXIS2_PLACEMENT_3D('',#474,#359,#360);
#290=AXIS2_PLACEMENT_3D('',#475,#361,#362);
#291=AXIS2_PLACEMENT_3D('',#477,#363,#364);
#292=AXIS2_PLACEMENT_3D('',#478,#365,#366);
#293=AXIS2_PLACEMENT_3D('',#480,#367,#368);
#294=AXIS2_PLACEMENT_3D('',#481,#369,#370);
#295=AXIS2_PLACEMENT_3D('',#483,#371,#372);
#296=AXIS2_PLACEMENT_3D('',#484,#373,#374);
#297=AXIS2_PLACEMENT_3D('',#486,#375,#376);
#298=AXIS2_PLACEMENT_3D('',#487,#377,#378);
#299=AXIS2_PLACEMENT_3D('',#488,#379,#380);
#300=AXIS2_PLACEMENT_3D('',#490,#381,#382);
#301=AXIS2_PLACEMENT_3D('',#491,#383,#384);
#302=AXIS2_PLACEMENT_3D('',#493,#385,#386);
#303=AXIS2_PLACEMENT_3D('',#494,#387,#388);
#304=AXIS2_PLACEMENT_3D('',#496,#389,#390);
#305=AXIS2_PLACEMENT_3D('',#497,#391,#392);
#306=AXIS2_PLACEMENT_3D('',#498,#393,#394);
#307=DIRECTION('axis',(0.,0.,1.));
#308=DIRECTION('refdir',(1.,0.,0.));
#309=DIRECTION('center_axis',(0.,0.,-1.));
#310=DIRECTION('ref_axis',(-1.,0.,0.));
#311=DIRECTION('center_axis',(0.,0.,-1.));
#312=DIRECTION('ref_axis',(-1.,0.,0.));
#313=DIRECTION('center_axis',(0.,0.,-1.));
#314=DIRECTION('ref_axis',(-1.,0.,0.));
#315=DIRECTION('center_axis',(1.,0.,0.));
#316=DIRECTION('ref_axis',(0.,0.,-1.));
#317=DIRECTION('center_axis',(1.,0.,0.));
#318=DIRECTION('ref_axis',(0.,-1.22464679914735E-16,-1.));
#319=DIRECTION('center_axis',(-1.,0.,0.));
#320=DIRECTION('ref_axis',(0.,-1.22464679914735E-16,-1.));
#321=DIRECTION('center_axis',(1.,0.,0.));
#322=DIRECTION('ref_axis',(-2.61228946970625E-16,0.,1.));
#323=DIRECTION('center_axis',(1.,0.,0.));
#324=DIRECTION('ref_axis',(-2.61228946970625E-16,0.,1.));
#325=DIRECTION('center_axis',(-1.,0.,0.));
#326=DIRECTION('ref_axis',(0.,0.,1.));
#327=DIRECTION('center_axis',(1.,0.,0.));
#328=DIRECTION('ref_axis',(-2.61228946970625E-16,0.,1.));
#329=DIRECTION('center_axis',(1.,0.,0.));
#330=DIRECTION('ref_axis',(0.,0.,-1.));
#331=DIRECTION('center_axis',(-1.,0.,0.));
#332=DIRECTION('ref_axis',(0.,0.,1.));
#333=DIRECTION('center_axis',(-1.,0.,0.));
#334=DIRECTION('ref_axis',(-2.61228946970625E-16,0.,1.));
#335=DIRECTION('center_axis',(-1.,0.,0.));
#336=DIRECTION('ref_axis',(0.,0.,1.));
#337=DIRECTION('center_axis',(1.,0.,0.));
#338=DIRECTION('ref_axis',(0.,0.,1.));
#339=DIRECTION('center_axis',(-1.,0.,0.));
#340=DIRECTION('ref_axis',(1.31989362679895E-16,0.,-1.));
#341=DIRECTION('center_axis',(1.,0.,0.));
#342=DIRECTION('ref_axis',(2.61228946970625E-16,0.,-1.));
#343=DIRECTION('center_axis',(-1.,0.,0.));
#344=DIRECTION('ref_axis',(0.,0.,-1.));
#345=DIRECTION('center_axis',(1.,0.,0.));
#346=DIRECTION('ref_axis',(-2.61228946970625E-16,0.,1.));
#347=DIRECTION('center_axis',(1.,0.,0.));
#348=DIRECTION('ref_axis',(0.,0.,-1.));
#349=DIRECTION('center_axis',(1.,0.,0.));
#350=DIRECTION('ref_axis',(-2.61228946970625E-16,0.,1.));
#351=DIRECTION('center_axis',(-1.,0.,0.));
#352=DIRECTION('ref_axis',(1.33807200776569E-16,0.,-1.));
#353=DIRECTION('center_axis',(1.,0.,0.));
#354=DIRECTION('ref_axis',(2.61228946970625E-16,0.,-1.));
#355=DIRECTION('center_axis',(-1.,0.,0.));
#356=DIRECTION('ref_axis',(0.,0.,-1.));
#357=DIRECTION('center_axis',(1.,0.,0.));
#358=DIRECTION('ref_axis',(-2.61228946970625E-16,0.,1.));
#359=DIRECTION('center_axis',(1.,0.,0.));
#360=DIRECTION('ref_axis',(-2.61228946970625E-16,0.,1.));
#361=DIRECTION('center_axis',(1.,0.,0.));
#362=DIRECTION('ref_axis',(0.,0.,-1.));
#363=DIRECTION('center_axis',(1.,0.,0.));
#364=DIRECTION('ref_axis',(-2.61228946970625E-16,0.,1.));
#365=DIRECTION('center_axis',(-1.,0.,0.));
#366=DIRECTION('ref_axis',(0.,0.,1.));
#367=DIRECTION('center_axis',(1.,0.,0.));
#368=DIRECTION('ref_axis',(-2.61228946970625E-16,0.,1.));
#369=DIRECTION('center_axis',(1.,0.,0.));
#370=DIRECTION('ref_axis',(-2.61228946970625E-16,0.,1.));
#371=DIRECTION('center_axis',(1.,0.,0.));
#372=DIRECTION('ref_axis',(-2.61228946970625E-16,0.,1.));
#373=DIRECTION('center_axis',(1.,0.,0.));
#374=DIRECTION('ref_axis',(0.,0.,-1.));
#375=DIRECTION('center_axis',(1.,0.,0.));
#376=DIRECTION('ref_axis',(-2.61228946970625E-16,0.,1.));
#377=DIRECTION('center_axis',(-1.,0.,0.));
#378=DIRECTION('ref_axis',(-2.61228946970625E-16,0.,1.));
#379=DIRECTION('center_axis',(1.,0.,0.));
#380=DIRECTION('ref_axis',(0.,0.,-1.));
#381=DIRECTION('center_axis',(1.,0.,0.));
#382=DIRECTION('ref_axis',(-2.61228946970625E-16,0.,1.));
#383=DIRECTION('center_axis',(1.,0.,0.));
#384=DIRECTION('ref_axis',(-2.61228946970625E-16,0.,1.));
#385=DIRECTION('center_axis',(1.,0.,0.));
#386=DIRECTION('ref_axis',(-2.61228946970625E-16,0.,1.));
#387=DIRECTION('center_axis',(1.,0.,0.));
#388=DIRECTION('ref_axis',(0.,0.,-1.));
#389=DIRECTION('center_axis',(1.,0.,0.));
#390=DIRECTION('ref_axis',(-2.61228946970625E-16,0.,1.));
#391=DIRECTION('center_axis',(1.,0.,0.));
#392=DIRECTION('ref_axis',(-2.61228946970625E-16,0.,1.));
#393=DIRECTION('center_axis',(1.,0.,0.));
#394=DIRECTION('ref_axis',(-2.61228946970625E-16,0.,1.));
#395=CARTESIAN_POINT('',(0.,0.,0.));
#396=CARTESIAN_POINT('Origin',(-9.,0.,-19.9017090714587));
#397=CARTESIAN_POINT('',(-12.,0.,-20.803));
#398=CARTESIAN_POINT('Origin',(-9.,0.,-20.803));
#399=CARTESIAN_POINT('Origin',(-9.,0.,-22.4015));
#400=CARTESIAN_POINT('',(-12.,0.,-24.));
#401=CARTESIAN_POINT('',(-6.,0.,-24.));
#402=CARTESIAN_POINT('Ctrl Pts',(-12.,0.,-24.));
#403=CARTESIAN_POINT('Ctrl Pts',(-12.,-0.377108907428788,-24.));
#404=CARTESIAN_POINT('Ctrl Pts',(-11.9245540055157,-0.779086057675872,-23.9902037726125));
#405=CARTESIAN_POINT('Ctrl Pts',(-11.6182697617979,-1.51810890237945,-23.9547948749576));
#406=CARTESIAN_POINT('Ctrl Pts',(-11.3874532402145,-1.85518744690475,-23.9296816515855));
#407=CARTESIAN_POINT('Ctrl Pts',(-10.8551852235891,-2.38745546353018,-23.8824505026548));
#408=CARTESIAN_POINT('Ctrl Pts',(-10.5181076456317,-2.61827024327171,-23.8572511014943));
#409=CARTESIAN_POINT('Ctrl Pts',(-9.77908807374086,-2.92455320934669,-23.8216447348514));
#410=CARTESIAN_POINT('Ctrl Pts',(-9.3771120578553,-3.,-23.8117617995813));
#411=CARTESIAN_POINT('Ctrl Pts',(-8.62288794214471,-3.,-23.8117617995813));
#412=CARTESIAN_POINT('Ctrl Pts',(-8.22091192625915,-2.92455320934669,-23.8216447348514));
#413=CARTESIAN_POINT('Ctrl Pts',(-7.48189235436831,-2.61827024327171,-23.8572511014943));
#414=CARTESIAN_POINT('Ctrl Pts',(-7.14481477641089,-2.38745546353018,-23.8824505026548));
#415=CARTESIAN_POINT('Ctrl Pts',(-6.61254675978546,-1.85518744690475,-23.9296816515855));
#416=CARTESIAN_POINT('Ctrl Pts',(-6.38173023820211,-1.51810890237945,-23.9547948749576));
#417=CARTESIAN_POINT('Ctrl Pts',(-6.07544599448431,-0.779086057675871,-23.9902037726125));
#418=CARTESIAN_POINT('Ctrl Pts',(-6.,-0.377108907428788,-24.));
#419=CARTESIAN_POINT('Ctrl Pts',(-6.,2.77555756156289E-16,-24.));
#420=CARTESIAN_POINT('Ctrl Pts',(-6.,-6.93889390390723E-17,-24.));
#421=CARTESIAN_POINT('Ctrl Pts',(-6.,0.377108907428788,-24.));
#422=CARTESIAN_POINT('Ctrl Pts',(-6.07544599448431,0.779086057675871,-23.9902037726125));
#423=CARTESIAN_POINT('Ctrl Pts',(-6.38173023820211,1.51810890237945,-23.9547948749576));
#424=CARTESIAN_POINT('Ctrl Pts',(-6.61254675978546,1.85518744690475,-23.9296816515855));
#425=CARTESIAN_POINT('Ctrl Pts',(-7.14481477641089,2.38745546353018,-23.8824505026548));
#426=CARTESIAN_POINT('Ctrl Pts',(-7.48189235436831,2.61827024327171,-23.8572511014943));
#427=CARTESIAN_POINT('Ctrl Pts',(-8.22091192625915,2.92455320934669,-23.8216447348514));
#428=CARTESIAN_POINT('Ctrl Pts',(-8.62288794214471,3.,-23.8117617995813));
#429=CARTESIAN_POINT('Ctrl Pts',(-9.,3.,-23.8117617995813));
#430=CARTESIAN_POINT('Ctrl Pts',(-9.3771120578553,3.,-23.8117617995813));
#431=CARTESIAN_POINT('Ctrl Pts',(-9.77908807374086,2.92455320934669,-23.8216447348514));
#432=CARTESIAN_POINT('Ctrl Pts',(-10.5181076456317,2.61827024327171,-23.8572511014943));
#433=CARTESIAN_POINT('Ctrl Pts',(-10.8551852235891,2.38745546353018,-23.8824505026548));
#434=CARTESIAN_POINT('Ctrl Pts',(-11.3874532402145,1.85518744690475,-23.9296816515855));
#435=CARTESIAN_POINT('Ctrl Pts',(-11.6182697617979,1.51810890237945,-23.9547948749576));
#436=CARTESIAN_POINT('Ctrl Pts',(-11.9245540055157,0.779086057675872,-23.9902037726125));
#437=CARTESIAN_POINT('Ctrl Pts',(-12.,0.377108907428788,-24.));
#438=CARTESIAN_POINT('Ctrl Pts',(-12.,-6.93889390390723E-17,-24.));
#439=CARTESIAN_POINT('Origin',(-14.,0.,0.));
#440=CARTESIAN_POINT('',(-14.,0.,22.5));
#441=CARTESIAN_POINT('Origin',(-14.,0.,0.));
#442=CARTESIAN_POINT('',(-13.,5.75583995599256E-15,23.5));
#443=CARTESIAN_POINT('Origin',(-13.,0.,0.));
#444=CARTESIAN_POINT('Origin',(-16.8301270189222,0.,0.));
#445=CARTESIAN_POINT('',(-20.6602540378444,0.,22.5));
#446=CARTESIAN_POINT('Origin',(-20.6602540378444,0.,0.));
#447=CARTESIAN_POINT('Origin',(-13.,0.,23.25));
#448=CARTESIAN_POINT('',(-13.,0.,24.));
#449=CARTESIAN_POINT('Origin',(-13.,0.,0.));
#450=CARTESIAN_POINT('Origin',(-22.5,0.,10.3));
#451=CARTESIAN_POINT('',(-22.5,0.,20.6));
#452=CARTESIAN_POINT('Origin',(-22.5,0.,0.));
#453=CARTESIAN_POINT('',(-22.5,-2.0818995585505E-15,-17.));
#454=CARTESIAN_POINT('Origin',(-22.5,0.,0.));
#455=CARTESIAN_POINT('Origin',(-23.75,0.,0.));
#456=CARTESIAN_POINT('',(-25.,0.,20.6));
#457=CARTESIAN_POINT('Origin',(-25.,0.,0.));
#458=CARTESIAN_POINT('Origin',(-5.25,0.,0.));
#459=CARTESIAN_POINT('',(-5.50000000000001,-2.93915231795365E-15,24.));
#460=CARTESIAN_POINT('Origin',(-5.5,0.,0.));
#461=CARTESIAN_POINT('',(-5.,2.87791997799628E-15,23.5));
#462=CARTESIAN_POINT('Origin',(-5.,0.,0.));
#463=CARTESIAN_POINT('Origin',(-9.,0.,0.));
#464=CARTESIAN_POINT('Origin',(-5.,0.,21.775));
#465=CARTESIAN_POINT('',(-5.,0.,19.55));
#466=CARTESIAN_POINT('Origin',(-5.,0.,0.));
#467=CARTESIAN_POINT('Origin',(9.5,0.,0.));
#468=CARTESIAN_POINT('',(9.,-2.56624736761328E-15,20.955));
#469=CARTESIAN_POINT('Origin',(9.00000000000001,0.,0.));
#470=CARTESIAN_POINT('',(10.,2.44378268769854E-15,19.955));
#471=CARTESIAN_POINT('Origin',(10.,0.,0.));
#472=CARTESIAN_POINT('Origin',(5.,0.,0.));
#473=CARTESIAN_POINT('',(-2.22044604925031E-15,0.,20.955));
#474=CARTESIAN_POINT('Origin',(0.,0.,0.));
#475=CARTESIAN_POINT('Origin',(10.,0.,18.9775));
#476=CARTESIAN_POINT('',(10.,0.,17.));
#477=CARTESIAN_POINT('Origin',(10.,0.,0.));
#478=CARTESIAN_POINT('Origin',(-25.,0.,22.25));
#479=CARTESIAN_POINT('',(-25.,0.,27.5));
#480=CARTESIAN_POINT('Origin',(-25.,0.,0.));
#481=CARTESIAN_POINT('Origin',(-23.7,0.,0.));
#482=CARTESIAN_POINT('',(-22.4,0.,27.5));
#483=CARTESIAN_POINT('Origin',(-22.4,0.,0.));
#484=CARTESIAN_POINT('Origin',(-23.2155957628977,0.,0.));
#485=CARTESIAN_POINT('',(-21.7667070234641,0.,26.629338758519));
#486=CARTESIAN_POINT('Origin',(-21.7667070234641,0.,0.));
#487=CARTESIAN_POINT('Origin',(-21.2134805306542,0.,0.));
#488=CARTESIAN_POINT('Origin',(-4.7,0.,0.));
#489=CARTESIAN_POINT('',(-4.7,0.,19.25));
#490=CARTESIAN_POINT('Origin',(-4.7,0.,0.));
#491=CARTESIAN_POINT('Origin',(-2.9287936448626,0.,0.));
#492=CARTESIAN_POINT('',(-1.1575872897252,0.,19.25));
#493=CARTESIAN_POINT('Origin',(-1.1575872897252,0.,0.));
#494=CARTESIAN_POINT('Origin',(-1.1575872897252,0.,0.));
#495=CARTESIAN_POINT('',(-0.897779668589869,0.,19.4));
#496=CARTESIAN_POINT('Origin',(-0.897779668589869,0.,0.));
#497=CARTESIAN_POINT('Origin',(-0.448889834294937,0.,0.));
#498=CARTESIAN_POINT('Origin',(-7.5,0.,0.));
#499=UNCERTAINTY_MEASURE_WITH_UNIT(LENGTH_MEASURE(0.01),#503,
'DISTANCE_ACCURACY_VALUE',
'Maximum model space distance between geometric entities at asserted c
onnectivities');
#500=UNCERTAINTY_MEASURE_WITH_UNIT(LENGTH_MEASURE(1.E-6),#503,
'DISTANCE_ACCURACY_VALUE',
'Maximum model space distance between geometric entities at asserted c
onnectivities');
#501=(
GEOMETRIC_REPRESENTATION_CONTEXT(3)
GLOBAL_UNCERTAINTY_ASSIGNED_CONTEXT((#499))
GLOBAL_UNIT_ASSIGNED_CONTEXT((#503,#506,#504))
REPRESENTATION_CONTEXT('','3D')
);
#502=(
GEOMETRIC_REPRESENTATION_CONTEXT(3)
GLOBAL_UNCERTAINTY_ASSIGNED_CONTEXT((#500))
GLOBAL_UNIT_ASSIGNED_CONTEXT((#503,#506,#504))
REPRESENTATION_CONTEXT('','3D')
);
#503=(
LENGTH_UNIT()
NAMED_UNIT(*)
SI_UNIT(.MILLI.,.METRE.)
);
#504=(
NAMED_UNIT(*)
SI_UNIT($,.STERADIAN.)
SOLID_ANGLE_UNIT()
);
#505=DIMENSIONAL_EXPONENTS(0.,0.,0.,0.,0.,0.,0.);
#506=(
CONVERSION_BASED_UNIT('degree',#508)
NAMED_UNIT(#505)
PLANE_ANGLE_UNIT()
);
#507=(
NAMED_UNIT(*)
PLANE_ANGLE_UNIT()
SI_UNIT($,.RADIAN.)
);
#508=PLANE_ANGLE_MEASURE_WITH_UNIT(PLANE_ANGLE_MEASURE(0.01745329252),#507);
#509=SHAPE_DEFINITION_REPRESENTATION(#510,#511);
#510=PRODUCT_DEFINITION_SHAPE('',$,#513);
#511=SHAPE_REPRESENTATION('',(#263),#501);
#512=PRODUCT_DEFINITION_CONTEXT('part definition',#517,'design');
#513=PRODUCT_DEFINITION('PK300525','PK300525',#514,#512);
#514=PRODUCT_DEFINITION_FORMATION('',$,#519);
#515=PRODUCT_RELATED_PRODUCT_CATEGORY('PK300525','PK300525',(#519));
#516=APPLICATION_PROTOCOL_DEFINITION('international standard',
'automotive_design',2009,#517);
#517=APPLICATION_CONTEXT(
'Core Data for Automotive Mechanical Design Process');
#518=PRODUCT_CONTEXT('part definition',#517,'mechanical');
#519=PRODUCT('PK300525','PK300525',$,(#518));
#520=PRESENTATION_STYLE_ASSIGNMENT((#521));
#521=SURFACE_STYLE_USAGE(.BOTH.,#522);
#522=SURFACE_SIDE_STYLE($,(#523));
#523=SURFACE_STYLE_FILL_AREA(#524);
#524=FILL_AREA_STYLE($,(#525));
#525=FILL_AREA_STYLE_COLOUR($,#526);
#526=COLOUR_RGB('',1.,1.,1.);
ENDSEC;
END-ISO-10303-21;
