ISO-10303-21;
HEADER;
FILE_DESCRIPTION (( 'STEP AP214' ),
    '1' );
FILE_NAME ('180FBL025.step',
    '2017-07-10T07:10:32',
    ( 'install' ),
    ( '' ),
    'SwSTEP 2.0',
    'SolidWorks 2015',
    '' );
FILE_SCHEMA (( 'AUTOMOTIVE_DESIGN' ));
ENDSEC;

DATA;
#1 = APPLICATION_CONTEXT ( 'automotive_design' ) ;
#2 = ADVANCED_FACE ( 'NONE', ( #97 ), #128, .T. ) ;
#3 = CARTESIAN_POINT ( 'NONE',  ( -12.43589838486204600, 0.0000000000000000000, 5.000000000000000000 ) ) ;
#4 = EDGE_LOOP ( 'NONE', ( #29, #208, #86, #113 ) ) ;
#5 = ORIENTED_EDGE ( 'NONE', *, *, #79, .F. ) ;
#6 = PRODUCT ( '180FBL025', '180FBL025', '', ( #96 ) ) ;
#7 = TOROIDAL_SURFACE ( 'NONE', #24, 18.89999999999999500, 0.9999999999999993300 ) ;
#8 = CARTESIAN_POINT ( 'NONE',  ( -18.89999999999999500, 0.0000000000000000000, 2.232673012021034500 ) ) ;
#9 = AXIS2_PLACEMENT_3D ( 'NONE', #12, #139, #34 ) ;
#10 = CARTESIAN_POINT ( 'NONE',  ( 0.0000000000000000000, 0.0000000000000000000, 2.232673012021034500 ) ) ;
#11 = ORIENTED_EDGE ( 'NONE', *, *, #114, .F. ) ;
#12 = CARTESIAN_POINT ( 'NONE',  ( 0.0000000000000000000, 0.0000000000000000000, 5.000000000000000000 ) ) ;
#13 = CARTESIAN_POINT ( 'NONE',  ( 19.15881904510251100, 2.346278641902814300E-015, 3.198598838310103200 ) ) ;
#14 = ORIENTED_EDGE ( 'NONE', *, *, #79, .T. ) ;
#15 = FILL_AREA_STYLE_COLOUR ( '', #134 ) ;
#16 = DIRECTION ( 'NONE',  ( -1.000000000000000000, 0.0000000000000000000, 0.0000000000000000000 ) ) ;
#17 = DIRECTION ( 'NONE',  ( -0.0000000000000000000, 0.0000000000000000000, -1.000000000000000000 ) ) ;
#18 =( GEOMETRIC_REPRESENTATION_CONTEXT ( 3 ) GLOBAL_UNCERTAINTY_ASSIGNED_CONTEXT ( ( #219 ) ) GLOBAL_UNIT_ASSIGNED_CONTEXT ( ( #222, #74, #202 ) ) REPRESENTATION_CONTEXT ( 'NONE', 'WORKASPACE' ) );
#19 = DIRECTION ( 'NONE',  ( -0.0000000000000000000, -0.0000000000000000000, -1.000000000000000000 ) ) ;
#20 = PLANE ( 'NONE',  #30 ) ;
#21 = SURFACE_SIDE_STYLE ('',( #151 ) ) ;
#22 = VECTOR ( 'NONE', #183, 1000.000000000000000 ) ;
#23 = ORIENTED_EDGE ( 'NONE', *, *, #114, .T. ) ;
#24 = AXIS2_PLACEMENT_3D ( 'NONE', #178, #84, #118 ) ;
#25 = ORIENTED_EDGE ( 'NONE', *, *, #196, .F. ) ;
#26 = FACE_OUTER_BOUND ( 'NONE', #42, .T. ) ;
#27 = PRODUCT_DEFINITION_SHAPE ( 'NONE', 'NONE',  #137 ) ;
#28 = CARTESIAN_POINT ( 'NONE',  ( 19.15881904510251100, 2.391662886103023300E-015, 3.198598838310103200 ) ) ;
#29 = ORIENTED_EDGE ( 'NONE', *, *, #136, .T. ) ;
#30 = AXIS2_PLACEMENT_3D ( 'NONE', #110, #56, #147 ) ;
#31 = UNCERTAINTY_MEASURE_WITH_UNIT (LENGTH_MEASURE( 1.000000000000000100E-005 ), #43, 'distance_accuracy_value', 'NONE');
#32 = VECTOR ( 'NONE', #49, 1000.000000000000000 ) ;
#33 = ORIENTED_EDGE ( 'NONE', *, *, #52, .F. ) ;
#34 = DIRECTION ( 'NONE',  ( -1.000000000000000000, 0.0000000000000000000, 0.0000000000000000000 ) ) ;
#35 = CYLINDRICAL_SURFACE ( 'NONE', #173, 19.89999999999999500 ) ;
#36 = DIRECTION ( 'NONE',  ( -0.0000000000000000000, -0.0000000000000000000, -1.000000000000000000 ) ) ;
#37 = CARTESIAN_POINT ( 'NONE',  ( 0.0000000000000000000, 0.0000000000000000000, 5.000000000000000000 ) ) ;
#38 = AXIS2_PLACEMENT_3D ( 'NONE', #10, #179, #192 ) ;
#39 = CARTESIAN_POINT ( 'NONE',  ( 12.43589838486204600, 1.934618478528559200E-015, 5.000000000000000000 ) ) ;
#40 = DIRECTION ( 'NONE',  ( -0.0000000000000000000, -0.0000000000000000000, -1.000000000000000000 ) ) ;
#41 = FILL_AREA_STYLE_COLOUR ( '', #197 ) ;
#42 = EDGE_LOOP ( 'NONE', ( #225, #23 ) ) ;
#43 =( LENGTH_UNIT ( ) NAMED_UNIT ( * ) SI_UNIT ( .MILLI., .METRE. ) );
#44 = EDGE_CURVE ( 'NONE', #103, #175, #231, .T. ) ;
#45 = DIRECTION ( 'NONE',  ( -0.0000000000000000000, -0.0000000000000000000, -1.000000000000000000 ) ) ;
#46 = VERTEX_POINT ( 'NONE', #3 ) ;
#47 = UNCERTAINTY_MEASURE_WITH_UNIT (LENGTH_MEASURE( 1.000000000000000100E-005 ), #90, 'distance_accuracy_value', 'NONE');
#48 = AXIS2_PLACEMENT_3D ( 'NONE', #182, #67, #195 ) ;
#49 = DIRECTION ( 'NONE',  ( -0.0000000000000000000, -0.0000000000000000000, -1.000000000000000000 ) ) ;
#50 = ORIENTED_EDGE ( 'NONE', *, *, #177, .T. ) ;
#51 = CARTESIAN_POINT ( 'NONE',  ( 19.89999999999999500, 2.437047130303232400E-015, 2.232673012021034500 ) ) ;
#52 = EDGE_CURVE ( 'NONE', #64, #103, #180, .T. ) ;
#53 = CARTESIAN_POINT ( 'NONE',  ( 0.0000000000000000000, 0.0000000000000000000, 0.0000000000000000000 ) ) ;
#54 = ORIENTED_EDGE ( 'NONE', *, *, #44, .T. ) ;
#55 = DIRECTION ( 'NONE',  ( -1.000000000000000000, 0.0000000000000000000, 0.0000000000000000000 ) ) ;
#56 = DIRECTION ( 'NONE',  ( 0.0000000000000000000, 0.0000000000000000000, 1.000000000000000000 ) ) ;
#57 = PRESENTATION_STYLE_ASSIGNMENT (( #198 ) ) ;
#58 = STYLED_ITEM ( 'NONE', ( #102 ), #226 ) ;
#59 = SURFACE_STYLE_FILL_AREA ( #184 ) ;
#60 =( NAMED_UNIT ( * ) SI_UNIT ( $, .STERADIAN. ) SOLID_ANGLE_UNIT ( ) );
#61 = ADVANCED_FACE ( 'NONE', ( #218 ), #7, .T. ) ;
#62 = AXIS2_PLACEMENT_3D ( 'NONE', #141, #36, #161 ) ;
#63 = EDGE_CURVE ( 'NONE', #122, #138, #81, .T. ) ;
#64 = VERTEX_POINT ( 'NONE', #28 ) ;
#65 = PRESENTATION_LAYER_ASSIGNMENT (  '', '', ( #58 ) ) ;
#66 = LINE ( 'NONE', #13, #22 ) ;
#67 = DIRECTION ( 'NONE',  ( -0.0000000000000000000, -0.0000000000000000000, -1.000000000000000000 ) ) ;
#68 = ORIENTED_EDGE ( 'NONE', *, *, #136, .F. ) ;
#69 = DIRECTION ( 'NONE',  ( -1.000000000000000000, 0.0000000000000000000, 0.0000000000000000000 ) ) ;
#70 = SURFACE_SIDE_STYLE ('',( #59 ) ) ;
#71 = STYLED_ITEM ( 'NONE', ( #57 ), #142 ) ;
#72 = DIRECTION ( 'NONE',  ( -1.000000000000000000, 0.0000000000000000000, 0.0000000000000000000 ) ) ;
#73 = CARTESIAN_POINT ( 'NONE',  ( 0.0000000000000000000, 0.0000000000000000000, 2.232673012021034500 ) ) ;
#74 =( NAMED_UNIT ( * ) PLANE_ANGLE_UNIT ( ) SI_UNIT ( $, .RADIAN. ) );
#75 = DIRECTION ( 'NONE',  ( 0.0000000000000000000, 0.0000000000000000000, 1.000000000000000000 ) ) ;
#76 = LINE ( 'NONE', #237, #212 ) ;
#77 = ORIENTED_EDGE ( 'NONE', *, *, #52, .T. ) ;
#78 = ADVANCED_FACE ( 'NONE', ( #224 ), #200, .T. ) ;
#79 = EDGE_CURVE ( 'NONE', #171, #46, #174, .T. ) ;
#80 = MECHANICAL_DESIGN_GEOMETRIC_PRESENTATION_REPRESENTATION (  '', ( #58 ), #93 ) ;
#81 = LINE ( 'NONE', #157, #32 ) ;
#82 = EDGE_LOOP ( 'NONE', ( #68, #5 ) ) ;
#83 = CIRCLE ( 'NONE', #158, 19.15881904510251100 ) ;
#84 = DIRECTION ( 'NONE',  ( -0.0000000000000000000, -0.0000000000000000000, -1.000000000000000000 ) ) ;
#85 = AXIS2_PLACEMENT_3D ( 'NONE', #37, #163, #55 ) ;
#86 = ORIENTED_EDGE ( 'NONE', *, *, #150, .F. ) ;
#87 = CARTESIAN_POINT ( 'NONE',  ( -19.15881904510251100, 0.0000000000000000000, 3.198598838310103200 ) ) ;
#88 = EDGE_CURVE ( 'NONE', #129, #138, #105, .T. ) ;
#89 = DIRECTION ( 'NONE',  ( -0.0000000000000000000, -0.0000000000000000000, -1.000000000000000000 ) ) ;
#90 =( LENGTH_UNIT ( ) NAMED_UNIT ( * ) SI_UNIT ( .MILLI., .METRE. ) );
#91 = ORIENTED_EDGE ( 'NONE', *, *, #44, .F. ) ;
#92 = DIRECTION ( 'NONE',  ( -0.0000000000000000000, -0.0000000000000000000, -1.000000000000000000 ) ) ;
#93 =( GEOMETRIC_REPRESENTATION_CONTEXT ( 3 ) GLOBAL_UNCERTAINTY_ASSIGNED_CONTEXT ( ( #31 ) ) GLOBAL_UNIT_ASSIGNED_CONTEXT ( ( #43, #168, #60 ) ) REPRESENTATION_CONTEXT ( 'NONE', 'WORKASPACE' ) );
#94 = DIRECTION ( 'NONE',  ( -1.000000000000000000, 0.0000000000000000000, 0.0000000000000000000 ) ) ;
#95 = ORIENTED_EDGE ( 'NONE', *, *, #162, .T. ) ;
#96 = PRODUCT_CONTEXT ( 'NONE', #1, 'mechanical' ) ;
#97 = FACE_OUTER_BOUND ( 'NONE', #4, .T. ) ;
#98 = AXIS2_PLACEMENT_3D ( 'NONE', #53, #89, #69 ) ;
#99 = ORIENTED_EDGE ( 'NONE', *, *, #100, .F. ) ;
#100 = EDGE_CURVE ( 'NONE', #175, #129, #76, .T. ) ;
#101 = DIRECTION ( 'NONE',  ( -0.0000000000000000000, -0.0000000000000000000, -1.000000000000000000 ) ) ;
#102 = PRESENTATION_STYLE_ASSIGNMENT (( #148 ) ) ;
#103 = VERTEX_POINT ( 'NONE', #87 ) ;
#104 = CARTESIAN_POINT ( 'NONE',  ( -19.89999999999999900, 0.0000000000000000000, 0.0000000000000000000 ) ) ;
#105 = CIRCLE ( 'NONE', #48, 19.89999999999999900 ) ;
#106 =( NAMED_UNIT ( * ) SI_UNIT ( $, .STERADIAN. ) SOLID_ANGLE_UNIT ( ) );
#107 = PRESENTATION_LAYER_ASSIGNMENT (  '', '', ( #71 ) ) ;
#108 = PLANE ( 'NONE',  #193 ) ;
#109 = DIRECTION ( 'NONE',  ( -1.224646799147353200E-016, 1.000000000000000000, 0.0000000000000000000 ) ) ;
#110 = CARTESIAN_POINT ( 'NONE',  ( 0.0000000000000000000, 12.43589838486204600, 4.999999999999999100 ) ) ;
#111 = APPLICATION_PROTOCOL_DEFINITION ( 'draft international standard', 'automotive_design', 1998, #227 ) ;
#112 = CYLINDRICAL_SURFACE ( 'NONE', #98, 19.89999999999999500 ) ;
#113 = ORIENTED_EDGE ( 'NONE', *, *, #162, .F. ) ;
#114 = EDGE_CURVE ( 'NONE', #138, #129, #120, .T. ) ;
#115 = CONICAL_SURFACE ( 'NONE', #235, 19.15881904510251100, 1.308996938995753600 ) ;
#116 = CARTESIAN_POINT ( 'NONE',  ( 0.0000000000000000000, 0.0000000000000000000, 3.198598838310103200 ) ) ;
#117 = ORIENTED_EDGE ( 'NONE', *, *, #124, .F. ) ;
#118 = DIRECTION ( 'NONE',  ( -1.000000000000000000, 0.0000000000000000000, 0.0000000000000000000 ) ) ;
#119 = MECHANICAL_DESIGN_GEOMETRIC_PRESENTATION_REPRESENTATION (  '', ( #71 ), #133 ) ;
#120 = CIRCLE ( 'NONE', #62, 19.89999999999999900 ) ;
#121 = DIRECTION ( 'NONE',  ( -0.0000000000000000000, -0.0000000000000000000, -1.000000000000000000 ) ) ;
#122 = VERTEX_POINT ( 'NONE', #51 ) ;
#123 = VECTOR ( 'NONE', #185, 1000.000000000000000 ) ;
#124 = EDGE_CURVE ( 'NONE', #171, #64, #66, .T. ) ;
#125 = CARTESIAN_POINT ( 'NONE',  ( 0.0000000000000000000, 0.0000000000000000000, 0.0000000000000000000 ) ) ;
#126 = AXIS2_PLACEMENT_3D ( 'NONE', #167, #75, #203 ) ;
#127 = FILL_AREA_STYLE ('',( #41 ) ) ;
#128 = CONICAL_SURFACE ( 'NONE', #210, 19.15881904510251100, 1.308996938995753600 ) ;
#129 = VERTEX_POINT ( 'NONE', #104 ) ;
#130 = FACE_OUTER_BOUND ( 'NONE', #213, .T. ) ;
#131 = ADVANCED_FACE ( 'NONE', ( #169 ), #112, .T. ) ;
#132 = PRODUCT_DEFINITION_CONTEXT ( 'detailed design', #227, 'design' ) ;
#133 =( GEOMETRIC_REPRESENTATION_CONTEXT ( 3 ) GLOBAL_UNCERTAINTY_ASSIGNED_CONTEXT ( ( #47 ) ) GLOBAL_UNIT_ASSIGNED_CONTEXT ( ( #90, #216, #106 ) ) REPRESENTATION_CONTEXT ( 'NONE', 'WORKASPACE' ) );
#134 = COLOUR_RGB ( '',0.9568627450980391500, 0.9490196078431372100, 0.9607843137254902200 ) ;
#135 = ORIENTED_EDGE ( 'NONE', *, *, #189, .T. ) ;
#136 = EDGE_CURVE ( 'NONE', #46, #171, #159, .T. ) ;
#137 = PRODUCT_DEFINITION ( 'UNKNOWN', '', #154, #132 ) ;
#138 = VERTEX_POINT ( 'NONE', #214 ) ;
#139 = DIRECTION ( 'NONE',  ( -0.0000000000000000000, -0.0000000000000000000, -1.000000000000000000 ) ) ;
#140 = DIRECTION ( 'NONE',  ( 0.0000000000000000000, -1.000000000000000000, 0.0000000000000000000 ) ) ;
#141 = CARTESIAN_POINT ( 'NONE',  ( 0.0000000000000000000, 0.0000000000000000000, 0.0000000000000000000 ) ) ;
#142 = MANIFOLD_SOLID_BREP ( 'Rotation1', #188 ) ;
#143 = CARTESIAN_POINT ( 'NONE',  ( -19.15881904510251100, 0.0000000000000000000, 3.198598838310103200 ) ) ;
#144 = DIRECTION ( 'NONE',  ( -1.000000000000000000, 0.0000000000000000000, 0.0000000000000000000 ) ) ;
#145 = CARTESIAN_POINT ( 'NONE',  ( 0.0000000000000000000, 0.0000000000000000000, 2.232673012021034500 ) ) ;
#146 = EDGE_LOOP ( 'NONE', ( #232, #77, #54, #242 ) ) ;
#147 = DIRECTION ( 'NONE',  ( 1.000000000000000000, 0.0000000000000000000, -0.0000000000000000000 ) ) ;
#148 = SURFACE_STYLE_USAGE ( .BOTH. , #21 ) ;
#149 = ADVANCED_FACE ( 'NONE', ( #207 ), #35, .T. ) ;
#150 = EDGE_CURVE ( 'NONE', #103, #64, #83, .T. ) ;
#151 = SURFACE_STYLE_FILL_AREA ( #127 ) ;
#152 = ORIENTED_EDGE ( 'NONE', *, *, #88, .F. ) ;
#153 = ORIENTED_EDGE ( 'NONE', *, *, #63, .F. ) ;
#154 = PRODUCT_DEFINITION_FORMATION_WITH_SPECIFIED_SOURCE ( 'ANY', '', #6, .NOT_KNOWN. ) ;
#155 = DIRECTION ( 'NONE',  ( -1.000000000000000000, 0.0000000000000000000, 0.0000000000000000000 ) ) ;
#156 = DIRECTION ( 'NONE',  ( 0.0000000000000000000, 0.0000000000000000000, -1.000000000000000000 ) ) ;
#157 = CARTESIAN_POINT ( 'NONE',  ( 19.89999999999999500, 2.437047130303232400E-015, 0.0000000000000000000 ) ) ;
#158 = AXIS2_PLACEMENT_3D ( 'NONE', #199, #92, #217 ) ;
#159 = CIRCLE ( 'NONE', #85, 12.43589838486204600 ) ;
#160 = ORIENTED_EDGE ( 'NONE', *, *, #100, .T. ) ;
#161 = DIRECTION ( 'NONE',  ( -1.000000000000000000, 0.0000000000000000000, 0.0000000000000000000 ) ) ;
#162 = EDGE_CURVE ( 'NONE', #46, #103, #176, .T. ) ;
#163 = DIRECTION ( 'NONE',  ( -0.0000000000000000000, -0.0000000000000000000, -1.000000000000000000 ) ) ;
#164 = CARTESIAN_POINT ( 'NONE',  ( -19.89999999999999500, 0.0000000000000000000, 2.232673012021034500 ) ) ;
#165 = DIRECTION ( 'NONE',  ( -1.000000000000000000, 0.0000000000000000000, 0.0000000000000000000 ) ) ;
#166 = PRODUCT_RELATED_PRODUCT_CATEGORY ( 'part', '', ( #6 ) ) ;
#167 = CARTESIAN_POINT ( 'NONE',  ( 0.0000000000000000000, 0.0000000000000000000, 0.0000000000000000000 ) ) ;
#168 =( NAMED_UNIT ( * ) PLANE_ANGLE_UNIT ( ) SI_UNIT ( $, .RADIAN. ) );
#169 = FACE_OUTER_BOUND ( 'NONE', #236, .T. ) ;
#170 = ADVANCED_FACE ( 'NONE', ( #26 ), #108, .T. ) ;
#171 = VERTEX_POINT ( 'NONE', #39 ) ;
#172 = CIRCLE ( 'NONE', #186, 1.000000000000000900 ) ;
#173 = AXIS2_PLACEMENT_3D ( 'NONE', #125, #238, #16 ) ;
#174 = CIRCLE ( 'NONE', #9, 12.43589838486204600 ) ;
#175 = VERTEX_POINT ( 'NONE', #164 ) ;
#176 = LINE ( 'NONE', #143, #123 ) ;
#177 = EDGE_CURVE ( 'NONE', #64, #122, #172, .T. ) ;
#178 = CARTESIAN_POINT ( 'NONE',  ( 0.0000000000000000000, 0.0000000000000000000, 2.232673012021034500 ) ) ;
#179 = DIRECTION ( 'NONE',  ( -0.0000000000000000000, -0.0000000000000000000, -1.000000000000000000 ) ) ;
#180 = CIRCLE ( 'NONE', #239, 19.15881904510251100 ) ;
#181 = ORIENTED_EDGE ( 'NONE', *, *, #63, .T. ) ;
#182 = CARTESIAN_POINT ( 'NONE',  ( 0.0000000000000000000, 0.0000000000000000000, 0.0000000000000000000 ) ) ;
#183 = DIRECTION ( 'NONE',  ( 0.9659258262890699800, 1.182917971378671800E-016, -0.2588190451025145200 ) ) ;
#184 = FILL_AREA_STYLE ('',( #15 ) ) ;
#185 = DIRECTION ( 'NONE',  ( -0.9659258262890699800, 0.0000000000000000000, -0.2588190451025145200 ) ) ;
#186 = AXIS2_PLACEMENT_3D ( 'NONE', #221, #109, #241 ) ;
#187 = CARTESIAN_POINT ( 'NONE',  ( 0.0000000000000000000, 0.0000000000000000000, 3.198598838310103200 ) ) ;
#188 = CLOSED_SHELL ( 'NONE', ( #2, #61, #149, #170, #131, #78, #204, #229 ) ) ;
#189 = EDGE_CURVE ( 'NONE', #122, #175, #228, .T. ) ;
#190 = ORIENTED_EDGE ( 'NONE', *, *, #196, .T. ) ;
#191 = ORIENTED_EDGE ( 'NONE', *, *, #150, .T. ) ;
#192 = DIRECTION ( 'NONE',  ( -1.000000000000000000, 0.0000000000000000000, 0.0000000000000000000 ) ) ;
#193 = AXIS2_PLACEMENT_3D ( 'NONE', #240, #17, #144 ) ;
#194 = EDGE_LOOP ( 'NONE', ( #191, #50, #25, #91 ) ) ;
#195 = DIRECTION ( 'NONE',  ( -1.000000000000000000, 0.0000000000000000000, 0.0000000000000000000 ) ) ;
#196 = EDGE_CURVE ( 'NONE', #175, #122, #215, .T. ) ;
#197 = COLOUR_RGB ( '',0.9568627450980391500, 0.9490196078431372100, 0.9607843137254902200 ) ;
#198 = SURFACE_STYLE_USAGE ( .BOTH. , #70 ) ;
#199 = CARTESIAN_POINT ( 'NONE',  ( 0.0000000000000000000, 0.0000000000000000000, 3.198598838310103200 ) ) ;
#200 = TOROIDAL_SURFACE ( 'NONE', #38, 18.89999999999999500, 0.9999999999999993300 ) ;
#201 = DIRECTION ( 'NONE',  ( -0.0000000000000000000, -0.0000000000000000000, -1.000000000000000000 ) ) ;
#202 =( NAMED_UNIT ( * ) SI_UNIT ( $, .STERADIAN. ) SOLID_ANGLE_UNIT ( ) );
#203 = DIRECTION ( 'NONE',  ( 1.000000000000000000, 0.0000000000000000000, 0.0000000000000000000 ) ) ;
#204 = ADVANCED_FACE ( 'NONE', ( #130 ), #115, .T. ) ;
#205 = EDGE_LOOP ( 'NONE', ( #190, #181, #152, #99 ) ) ;
#206 = AXIS2_PLACEMENT_3D ( 'NONE', #145, #40, #165 ) ;
#207 = FACE_OUTER_BOUND ( 'NONE', #205, .T. ) ;
#208 = ORIENTED_EDGE ( 'NONE', *, *, #124, .T. ) ;
#209 = FACE_OUTER_BOUND ( 'NONE', #82, .T. ) ;
#210 = AXIS2_PLACEMENT_3D ( 'NONE', #116, #45, #155 ) ;
#211 = CARTESIAN_POINT ( 'NONE',  ( 0.0000000000000000000, 0.0000000000000000000, 3.198598838310103200 ) ) ;
#212 = VECTOR ( 'NONE', #121, 1000.000000000000000 ) ;
#213 = EDGE_LOOP ( 'NONE', ( #117, #14, #95, #33 ) ) ;
#214 = CARTESIAN_POINT ( 'NONE',  ( 19.89999999999999900, 2.437047130303232800E-015, 0.0000000000000000000 ) ) ;
#215 = CIRCLE ( 'NONE', #220, 19.89999999999999500 ) ;
#216 =( NAMED_UNIT ( * ) PLANE_ANGLE_UNIT ( ) SI_UNIT ( $, .RADIAN. ) );
#217 = DIRECTION ( 'NONE',  ( -1.000000000000000000, 0.0000000000000000000, 0.0000000000000000000 ) ) ;
#218 = FACE_OUTER_BOUND ( 'NONE', #194, .T. ) ;
#219 = UNCERTAINTY_MEASURE_WITH_UNIT (LENGTH_MEASURE( 1.000000000000000100E-005 ), #222, 'distance_accuracy_value', 'NONE');
#220 = AXIS2_PLACEMENT_3D ( 'NONE', #73, #201, #94 ) ;
#221 = CARTESIAN_POINT ( 'NONE',  ( 18.89999999999999500, 2.314582450388497200E-015, 2.232673012021034500 ) ) ;
#222 =( LENGTH_UNIT ( ) NAMED_UNIT ( * ) SI_UNIT ( .MILLI., .METRE. ) );
#223 = APPLICATION_PROTOCOL_DEFINITION ( 'draft international standard', 'automotive_design', 1998, #1 ) ;
#224 = FACE_OUTER_BOUND ( 'NONE', #146, .T. ) ;
#225 = ORIENTED_EDGE ( 'NONE', *, *, #88, .T. ) ;
#226 = ADVANCED_BREP_SHAPE_REPRESENTATION ( '180FBL025', ( #142, #126 ), #18 ) ;
#227 = APPLICATION_CONTEXT ( 'automotive_design' ) ;
#228 = CIRCLE ( 'NONE', #206, 19.89999999999999500 ) ;
#229 = ADVANCED_FACE ( 'NONE', ( #209 ), #20, .T. ) ;
#230 = AXIS2_PLACEMENT_3D ( 'NONE', #8, #140, #156 ) ;
#231 = CIRCLE ( 'NONE', #230, 0.9999999999999993300 ) ;
#232 = ORIENTED_EDGE ( 'NONE', *, *, #177, .F. ) ;
#233 = DIRECTION ( 'NONE',  ( -1.000000000000000000, 0.0000000000000000000, 0.0000000000000000000 ) ) ;
#234 = SHAPE_DEFINITION_REPRESENTATION ( #27, #226 ) ;
#235 = AXIS2_PLACEMENT_3D ( 'NONE', #187, #19, #72 ) ;
#236 = EDGE_LOOP ( 'NONE', ( #153, #135, #160, #11 ) ) ;
#237 = CARTESIAN_POINT ( 'NONE',  ( -19.89999999999999500, 0.0000000000000000000, 0.0000000000000000000 ) ) ;
#238 = DIRECTION ( 'NONE',  ( -0.0000000000000000000, -0.0000000000000000000, -1.000000000000000000 ) ) ;
#239 = AXIS2_PLACEMENT_3D ( 'NONE', #211, #101, #233 ) ;
#240 = CARTESIAN_POINT ( 'NONE',  ( 0.0000000000000000000, 0.0000000000000000000, 0.0000000000000000000 ) ) ;
#241 = DIRECTION ( 'NONE',  ( -1.000000000000000000, -1.224646799147353500E-016, 0.0000000000000000000 ) ) ;
#242 = ORIENTED_EDGE ( 'NONE', *, *, #189, .F. ) ;
ENDSEC;
END-ISO-10303-21;
