ISO-10303-21;
/* Copyright TRINOS Vakuum-Systeme GmbH */
HEADER;
FILE_DESCRIPTION (( 'STEP AP214' ),
    '1' );
FILE_NAME ('402 DFL 016-S2.step',
    '2012-06-30T20:05:31',
    ( '' ),
    ( '' ),
    'SwSTEP 2.0',
    'SolidWorks 2010',
    '' );
FILE_SCHEMA (( 'AUTOMOTIVE_DESIGN' ));
ENDSEC;

DATA;
#1 = PRODUCT ( '402 DFL 016-S2', '402 DFL 016-S2', '', ( #181 ) ) ;
#2 = STYLED_ITEM ( 'NONE', ( #3 ), #90 ) ;
#3 = PRESENTATION_STYLE_ASSIGNMENT (( #136 ) ) ;
#4 = CIRCLE ( 'NONE', #58, 10.69999999999998700 ) ;
#5 = ORIENTED_EDGE ( 'NONE', *, *, #75, .T. ) ;
#6 = ORIENTED_EDGE ( 'NONE', *, *, #68, .F. ) ;
#7 = CIRCLE ( 'NONE', #59, 8.099999999999996100 ) ;
#8 = ORIENTED_EDGE ( 'NONE', *, *, #68, .T. ) ;
#9 = FACE_BOUND ( 'NONE', #41, .T. ) ;
#10 = CIRCLE ( 'NONE', #60, 8.099999999999996100 ) ;
#11 = VECTOR ( 'NONE', #188, 1000.000000000000000 ) ;
#12 = SURFACE_STYLE_FILL_AREA ( #134 ) ;
#13 = CIRCLE ( 'NONE', #61, 10.69999999999998700 ) ;
#14 = COLOUR_RGB ( '',0.2509803921568627400, 0.2509803921568627400, 0.2509803921568627400 ) ;
#15 = ORIENTED_EDGE ( 'NONE', *, *, #66, .T. ) ;
#16 = ORIENTED_EDGE ( 'NONE', *, *, #70, .F. ) ;
#17 = ORIENTED_EDGE ( 'NONE', *, *, #64, .F. ) ;
#18 = CIRCLE ( 'NONE', #63, 8.099999999999996100 ) ;
#19 = ORIENTED_EDGE ( 'NONE', *, *, #72, .F. ) ;
#20 = CYLINDRICAL_SURFACE ( 'NONE', #79, 10.69999999999998700 ) ;
#21 = ORIENTED_EDGE ( 'NONE', *, *, #75, .F. ) ;
#22 = CIRCLE ( 'NONE', #92, 8.099999999999996100 ) ;
#23 = ORIENTED_EDGE ( 'NONE', *, *, #67, .T. ) ;
#24 = ORIENTED_EDGE ( 'NONE', *, *, #74, .T. ) ;
#25 = CIRCLE ( 'NONE', #77, 10.69999999999998700 ) ;
#26 = CIRCLE ( 'NONE', #91, 10.69999999999998700 ) ;
#27 = LINE ( 'NONE', #190, #28 ) ;
#28 = VECTOR ( 'NONE', #197, 1000.000000000000000 ) ;
#29 = VECTOR ( 'NONE', #205, 1000.000000000000000 ) ;
#30 = LINE ( 'NONE', #210, #11 ) ;
#31 = LINE ( 'NONE', #211, #32 ) ;
#32 = VECTOR ( 'NONE', #189, 1000.000000000000000 ) ;
#33 = CLOSED_SHELL ( 'NONE', ( #117, #115, #114, #116, #119, #118 ) ) ;
#34 = ORIENTED_EDGE ( 'NONE', *, *, #73, .F. ) ;
#35 = EDGE_LOOP ( 'NONE', ( #52, #24 ) ) ;
#36 = EDGE_LOOP ( 'NONE', ( #50, #44, #43, #54 ) ) ;
#37 = EDGE_LOOP ( 'NONE', ( #56, #15, #45, #6 ) ) ;
#38 = EDGE_LOOP ( 'NONE', ( #5, #53, #47, #17 ) ) ;
#39 = EDGE_LOOP ( 'NONE', ( #55, #16, #8, #46 ) ) ;
#40 = EDGE_LOOP ( 'NONE', ( #34, #48 ) ) ;
#41 = EDGE_LOOP ( 'NONE', ( #21, #19 ) ) ;
#42 = EDGE_LOOP ( 'NONE', ( #49, #23 ) ) ;
#43 = ORIENTED_EDGE ( 'NONE', *, *, #64, .T. ) ;
#44 = ORIENTED_EDGE ( 'NONE', *, *, #72, .T. ) ;
#45 = ORIENTED_EDGE ( 'NONE', *, *, #76, .T. ) ;
#46 = ORIENTED_EDGE ( 'NONE', *, *, #73, .T. ) ;
#47 = ORIENTED_EDGE ( 'NONE', *, *, #71, .F. ) ;
#48 = ORIENTED_EDGE ( 'NONE', *, *, #76, .F. ) ;
#49 = ORIENTED_EDGE ( 'NONE', *, *, #70, .T. ) ;
#50 = ORIENTED_EDGE ( 'NONE', *, *, #65, .F. ) ;
#51 = LINE ( 'NONE', #122, #29 ) ;
#52 = ORIENTED_EDGE ( 'NONE', *, *, #71, .T. ) ;
#53 = ORIENTED_EDGE ( 'NONE', *, *, #65, .T. ) ;
#54 = ORIENTED_EDGE ( 'NONE', *, *, #74, .F. ) ;
#55 = ORIENTED_EDGE ( 'NONE', *, *, #66, .F. ) ;
#56 = ORIENTED_EDGE ( 'NONE', *, *, #67, .F. ) ;
#57 = MECHANICAL_DESIGN_GEOMETRIC_PRESENTATION_REPRESENTATION (  '', ( #2 ), #100 ) ;
#58 = AXIS2_PLACEMENT_3D ( 'NONE', #194, #132, #133 ) ;
#59 = AXIS2_PLACEMENT_3D ( 'NONE', #185, #127, #129 ) ;
#60 = AXIS2_PLACEMENT_3D ( 'NONE', #186, #125, #126 ) ;
#61 = AXIS2_PLACEMENT_3D ( 'NONE', #201, #193, #192 ) ;
#62 = PRESENTATION_LAYER_ASSIGNMENT (  '', '', ( #2 ) ) ;
#63 = AXIS2_PLACEMENT_3D ( 'NONE', #124, #184, #191 ) ;
#64 = EDGE_CURVE ( 'NONE', #214, #212, #31, .T. ) ;
#65 = EDGE_CURVE ( 'NONE', #206, #213, #30, .T. ) ;
#66 = EDGE_CURVE ( 'NONE', #209, #207, #51, .T. ) ;
#67 = EDGE_CURVE ( 'NONE', #209, #208, #26, .T. ) ;
#68 = EDGE_CURVE ( 'NONE', #208, #123, #27, .T. ) ;
#69 = AXIS2_PLACEMENT_3D ( 'NONE', #128, #143, #144 ) ;
#70 = EDGE_CURVE ( 'NONE', #208, #209, #25, .T. ) ;
#71 = EDGE_CURVE ( 'NONE', #212, #213, #22, .T. ) ;
#72 = EDGE_CURVE ( 'NONE', #206, #214, #18, .T. ) ;
#73 = EDGE_CURVE ( 'NONE', #123, #207, #13, .T. ) ;
#74 = EDGE_CURVE ( 'NONE', #213, #212, #10, .T. ) ;
#75 = EDGE_CURVE ( 'NONE', #214, #206, #7, .T. ) ;
#76 = EDGE_CURVE ( 'NONE', #207, #123, #4, .T. ) ;
#77 = AXIS2_PLACEMENT_3D ( 'NONE', #196, #199, #198 ) ;
#78 = AXIS2_PLACEMENT_3D ( 'NONE', #148, #150, #151 ) ;
#79 = AXIS2_PLACEMENT_3D ( 'NONE', #146, #141, #140 ) ;
#80 = AXIS2_PLACEMENT_3D ( 'NONE', #156, #155, #154 ) ;
#81 = AXIS2_PLACEMENT_3D ( 'NONE', #153, #147, #131 ) ;
#82 = AXIS2_PLACEMENT_3D ( 'NONE', #159, #158, #157 ) ;
#83 = MECHANICAL_DESIGN_GEOMETRIC_PRESENTATION_REPRESENTATION (  '', ( #108 ), #97 ) ;
#84 = PRODUCT_RELATED_PRODUCT_CATEGORY ( 'part', '', ( #1 ) ) ;
#85 = PRODUCT_DEFINITION_FORMATION_WITH_SPECIFIED_SOURCE ( 'ANY', '', #1, .NOT_KNOWN. ) ;
#86 = PRODUCT_DEFINITION ( 'UNKNOWN', '', #85, #120 ) ;
#87 = AXIS2_PLACEMENT_3D ( 'NONE', #176, #177, #178 ) ;
#88 = PRESENTATION_LAYER_ASSIGNMENT (  '', '', ( #108 ) ) ;
#89 = UNCERTAINTY_MEASURE_WITH_UNIT (LENGTH_MEASURE( 1.000000000000000100E-005 ), #137, 'distance_accuracy_value', 'NONE');
#90 = MANIFOLD_SOLID_BREP ( 'Linear austragen1', #33 ) ;
#91 = AXIS2_PLACEMENT_3D ( 'NONE', #187, #204, #202 ) ;
#92 = AXIS2_PLACEMENT_3D ( 'NONE', #203, #200, #195 ) ;
#93 = ADVANCED_BREP_SHAPE_REPRESENTATION ( '402 DFL 016-S2', ( #90, #87 ), #113 ) ;
#94 = UNCERTAINTY_MEASURE_WITH_UNIT (LENGTH_MEASURE( 1.000000000000000100E-005 ), #173, 'distance_accuracy_value', 'NONE');
#95 = UNCERTAINTY_MEASURE_WITH_UNIT (LENGTH_MEASURE( 1.000000000000000100E-005 ), #152, 'distance_accuracy_value', 'NONE');
#96 = FACE_OUTER_BOUND ( 'NONE', #39, .T. ) ;
#97 =( GEOMETRIC_REPRESENTATION_CONTEXT ( 3 ) GLOBAL_UNCERTAINTY_ASSIGNED_CONTEXT ( ( #94 ) ) GLOBAL_UNIT_ASSIGNED_CONTEXT ( ( #173, #174, #175 ) ) REPRESENTATION_CONTEXT ( 'NONE', 'WORKASPACE' ) );
#98 = SURFACE_STYLE_FILL_AREA ( #170 ) ;
#99 = CYLINDRICAL_SURFACE ( 'NONE', #80, 8.099999999999996100 ) ;
#100 =( GEOMETRIC_REPRESENTATION_CONTEXT ( 3 ) GLOBAL_UNCERTAINTY_ASSIGNED_CONTEXT ( ( #89 ) ) GLOBAL_UNIT_ASSIGNED_CONTEXT ( ( #137, #138, #139 ) ) REPRESENTATION_CONTEXT ( 'NONE', 'WORKASPACE' ) );
#101 = PRESENTATION_STYLE_ASSIGNMENT (( #172 ) ) ;
#102 = SHAPE_DEFINITION_REPRESENTATION ( #121, #93 ) ;
#103 = FACE_OUTER_BOUND ( 'NONE', #42, .T. ) ;
#104 = FACE_OUTER_BOUND ( 'NONE', #38, .T. ) ;
#105 = FACE_OUTER_BOUND ( 'NONE', #36, .T. ) ;
#106 = CYLINDRICAL_SURFACE ( 'NONE', #81, 8.099999999999996100 ) ;
#107 = CYLINDRICAL_SURFACE ( 'NONE', #82, 10.69999999999998700 ) ;
#108 = STYLED_ITEM ( 'NONE', ( #101 ), #93 ) ;
#109 = FACE_BOUND ( 'NONE', #35, .T. ) ;
#110 = COLOUR_RGB ( '',0.3843137254901960500, 0.3843137254901960500, 0.3843137254901960500 ) ;
#111 = FACE_OUTER_BOUND ( 'NONE', #40, .T. ) ;
#112 = FACE_OUTER_BOUND ( 'NONE', #37, .T. ) ;
#113 =( GEOMETRIC_REPRESENTATION_CONTEXT ( 3 ) GLOBAL_UNCERTAINTY_ASSIGNED_CONTEXT ( ( #95 ) ) GLOBAL_UNIT_ASSIGNED_CONTEXT ( ( #152, #167, #168 ) ) REPRESENTATION_CONTEXT ( 'NONE', 'WORKASPACE' ) );
#114 = ADVANCED_FACE ( 'NONE', ( #103, #9 ), #142, .T. ) ;
#115 = ADVANCED_FACE ( 'NONE', ( #112 ), #20, .T. ) ;
#116 = ADVANCED_FACE ( 'NONE', ( #111, #109 ), #149, .F. ) ;
#117 = ADVANCED_FACE ( 'NONE', ( #104 ), #106, .F. ) ;
#118 = ADVANCED_FACE ( 'NONE', ( #105 ), #99, .F. ) ;
#119 = ADVANCED_FACE ( 'NONE', ( #96 ), #107, .T. ) ;
#120 = PRODUCT_DEFINITION_CONTEXT ( 'detailed design', #182, 'design' ) ;
#121 = PRODUCT_DEFINITION_SHAPE ( 'NONE', 'NONE',  #86 ) ;
#122 = CARTESIAN_POINT ( 'NONE',  ( 10.69999999999998700, 1.310372075087666400E-015, 3.000000000000000000 ) ) ;
#123 = VERTEX_POINT ( 'NONE', #145 ) ;
#124 = CARTESIAN_POINT ( 'NONE',  ( 0.0000000000000000000, 0.0000000000000000000, 3.000000000000000000 ) ) ;
#125 = DIRECTION ( 'NONE',  ( 0.0000000000000000000, 0.0000000000000000000, 1.000000000000000000 ) ) ;
#126 = DIRECTION ( 'NONE',  ( 1.000000000000000000, 0.0000000000000000000, 0.0000000000000000000 ) ) ;
#127 = DIRECTION ( 'NONE',  ( 0.0000000000000000000, 0.0000000000000000000, 1.000000000000000000 ) ) ;
#128 = CARTESIAN_POINT ( 'NONE',  ( 0.0000000000000000000, 0.0000000000000000000, 3.000000000000000000 ) ) ;
#129 = DIRECTION ( 'NONE',  ( 1.000000000000000000, 0.0000000000000000000, 0.0000000000000000000 ) ) ;
#130 = FILL_AREA_STYLE_COLOUR ( '', #14 ) ;
#131 = DIRECTION ( 'NONE',  ( -1.000000000000000000, 0.0000000000000000000, 0.0000000000000000000 ) ) ;
#132 = DIRECTION ( 'NONE',  ( 0.0000000000000000000, 0.0000000000000000000, 1.000000000000000000 ) ) ;
#133 = DIRECTION ( 'NONE',  ( 1.000000000000000000, 0.0000000000000000000, 0.0000000000000000000 ) ) ;
#134 = FILL_AREA_STYLE ('',( #130 ) ) ;
#135 = SURFACE_SIDE_STYLE ('',( #12 ) ) ;
#136 = SURFACE_STYLE_USAGE ( .BOTH. , #135 ) ;
#137 =( LENGTH_UNIT ( ) NAMED_UNIT ( * ) SI_UNIT ( .MILLI., .METRE. ) );
#138 =( NAMED_UNIT ( * ) PLANE_ANGLE_UNIT ( ) SI_UNIT ( $, .RADIAN. ) );
#139 =( NAMED_UNIT ( * ) SI_UNIT ( $, .STERADIAN. ) SOLID_ANGLE_UNIT ( ) );
#140 = DIRECTION ( 'NONE',  ( -1.000000000000000000, 0.0000000000000000000, 0.0000000000000000000 ) ) ;
#141 = DIRECTION ( 'NONE',  ( -0.0000000000000000000, -0.0000000000000000000, -1.000000000000000000 ) ) ;
#142 = PLANE ( 'NONE',  #69 ) ;
#143 = DIRECTION ( 'NONE',  ( 0.0000000000000000000, 0.0000000000000000000, 1.000000000000000000 ) ) ;
#144 = DIRECTION ( 'NONE',  ( 1.000000000000000000, 0.0000000000000000000, -0.0000000000000000000 ) ) ;
#145 = CARTESIAN_POINT ( 'NONE',  ( -10.69999999999998700, 0.0000000000000000000, 0.0000000000000000000 ) ) ;
#146 = CARTESIAN_POINT ( 'NONE',  ( 0.0000000000000000000, 0.0000000000000000000, 3.000000000000000000 ) ) ;
#147 = DIRECTION ( 'NONE',  ( -0.0000000000000000000, -0.0000000000000000000, -1.000000000000000000 ) ) ;
#148 = CARTESIAN_POINT ( 'NONE',  ( 0.0000000000000000000, 0.0000000000000000000, 0.0000000000000000000 ) ) ;
#149 = PLANE ( 'NONE',  #78 ) ;
#150 = DIRECTION ( 'NONE',  ( 0.0000000000000000000, 0.0000000000000000000, 1.000000000000000000 ) ) ;
#151 = DIRECTION ( 'NONE',  ( 1.000000000000000000, 0.0000000000000000000, -0.0000000000000000000 ) ) ;
#152 =( LENGTH_UNIT ( ) NAMED_UNIT ( * ) SI_UNIT ( .MILLI., .METRE. ) );
#153 = CARTESIAN_POINT ( 'NONE',  ( 0.0000000000000000000, 0.0000000000000000000, 3.000000000000000000 ) ) ;
#154 = DIRECTION ( 'NONE',  ( -1.000000000000000000, 0.0000000000000000000, 0.0000000000000000000 ) ) ;
#155 = DIRECTION ( 'NONE',  ( -0.0000000000000000000, -0.0000000000000000000, -1.000000000000000000 ) ) ;
#156 = CARTESIAN_POINT ( 'NONE',  ( 0.0000000000000000000, 0.0000000000000000000, 3.000000000000000000 ) ) ;
#157 = DIRECTION ( 'NONE',  ( -1.000000000000000000, 0.0000000000000000000, 0.0000000000000000000 ) ) ;
#158 = DIRECTION ( 'NONE',  ( -0.0000000000000000000, -0.0000000000000000000, -1.000000000000000000 ) ) ;
#159 = CARTESIAN_POINT ( 'NONE',  ( 0.0000000000000000000, 0.0000000000000000000, 3.000000000000000000 ) ) ;
#160 = CARTESIAN_POINT ( 'NONE',  ( 8.099999999999996100, 9.919639073093555300E-016, 3.000000000000000000 ) ) ;
#161 = CARTESIAN_POINT ( 'NONE',  ( 10.69999999999998700, 1.310372075087666400E-015, 0.0000000000000000000 ) ) ;
#162 = CARTESIAN_POINT ( 'NONE',  ( -10.69999999999998700, 0.0000000000000000000, 3.000000000000000000 ) ) ;
#163 = CARTESIAN_POINT ( 'NONE',  ( 10.69999999999998700, 1.310372075087666400E-015, 3.000000000000000000 ) ) ;
#164 = CARTESIAN_POINT ( 'NONE',  ( -8.099999999999996100, 0.0000000000000000000, 0.0000000000000000000 ) ) ;
#165 = CARTESIAN_POINT ( 'NONE',  ( 8.099999999999996100, 9.919639073093555300E-016, 0.0000000000000000000 ) ) ;
#166 = CARTESIAN_POINT ( 'NONE',  ( -8.099999999999996100, 0.0000000000000000000, 3.000000000000000000 ) ) ;
#167 =( NAMED_UNIT ( * ) PLANE_ANGLE_UNIT ( ) SI_UNIT ( $, .RADIAN. ) );
#168 =( NAMED_UNIT ( * ) SI_UNIT ( $, .STERADIAN. ) SOLID_ANGLE_UNIT ( ) );
#169 = FILL_AREA_STYLE_COLOUR ( '', #110 ) ;
#170 = FILL_AREA_STYLE ('',( #169 ) ) ;
#171 = SURFACE_SIDE_STYLE ('',( #98 ) ) ;
#172 = SURFACE_STYLE_USAGE ( .BOTH. , #171 ) ;
#173 =( LENGTH_UNIT ( ) NAMED_UNIT ( * ) SI_UNIT ( .MILLI., .METRE. ) );
#174 =( NAMED_UNIT ( * ) PLANE_ANGLE_UNIT ( ) SI_UNIT ( $, .RADIAN. ) );
#175 =( NAMED_UNIT ( * ) SI_UNIT ( $, .STERADIAN. ) SOLID_ANGLE_UNIT ( ) );
#176 = CARTESIAN_POINT ( 'NONE',  ( 0.0000000000000000000, 0.0000000000000000000, 0.0000000000000000000 ) ) ;
#177 = DIRECTION ( 'NONE',  ( 0.0000000000000000000, 0.0000000000000000000, 1.000000000000000000 ) ) ;
#178 = DIRECTION ( 'NONE',  ( 1.000000000000000000, 0.0000000000000000000, 0.0000000000000000000 ) ) ;
#179 = APPLICATION_CONTEXT ( 'automotive_design' ) ;
#180 = APPLICATION_PROTOCOL_DEFINITION ( 'draft international standard', 'automotive_design', 1998, #179 ) ;
#181 = PRODUCT_CONTEXT ( 'NONE', #179, 'mechanical' ) ;
#182 = APPLICATION_CONTEXT ( 'automotive_design' ) ;
#183 = APPLICATION_PROTOCOL_DEFINITION ( 'draft international standard', 'automotive_design', 1998, #182 ) ;
#184 = DIRECTION ( 'NONE',  ( 0.0000000000000000000, 0.0000000000000000000, 1.000000000000000000 ) ) ;
#185 = CARTESIAN_POINT ( 'NONE',  ( 0.0000000000000000000, 0.0000000000000000000, 3.000000000000000000 ) ) ;
#186 = CARTESIAN_POINT ( 'NONE',  ( 0.0000000000000000000, 0.0000000000000000000, 0.0000000000000000000 ) ) ;
#187 = CARTESIAN_POINT ( 'NONE',  ( 0.0000000000000000000, 0.0000000000000000000, 3.000000000000000000 ) ) ;
#188 = DIRECTION ( 'NONE',  ( -0.0000000000000000000, -0.0000000000000000000, -1.000000000000000000 ) ) ;
#189 = DIRECTION ( 'NONE',  ( -0.0000000000000000000, -0.0000000000000000000, -1.000000000000000000 ) ) ;
#190 = CARTESIAN_POINT ( 'NONE',  ( -10.69999999999998700, 0.0000000000000000000, 3.000000000000000000 ) ) ;
#191 = DIRECTION ( 'NONE',  ( 1.000000000000000000, 0.0000000000000000000, 0.0000000000000000000 ) ) ;
#192 = DIRECTION ( 'NONE',  ( 1.000000000000000000, 0.0000000000000000000, 0.0000000000000000000 ) ) ;
#193 = DIRECTION ( 'NONE',  ( 0.0000000000000000000, 0.0000000000000000000, 1.000000000000000000 ) ) ;
#194 = CARTESIAN_POINT ( 'NONE',  ( 0.0000000000000000000, 0.0000000000000000000, 0.0000000000000000000 ) ) ;
#195 = DIRECTION ( 'NONE',  ( 1.000000000000000000, 0.0000000000000000000, 0.0000000000000000000 ) ) ;
#196 = CARTESIAN_POINT ( 'NONE',  ( 0.0000000000000000000, 0.0000000000000000000, 3.000000000000000000 ) ) ;
#197 = DIRECTION ( 'NONE',  ( -0.0000000000000000000, -0.0000000000000000000, -1.000000000000000000 ) ) ;
#198 = DIRECTION ( 'NONE',  ( 1.000000000000000000, 0.0000000000000000000, 0.0000000000000000000 ) ) ;
#199 = DIRECTION ( 'NONE',  ( 0.0000000000000000000, 0.0000000000000000000, 1.000000000000000000 ) ) ;
#200 = DIRECTION ( 'NONE',  ( 0.0000000000000000000, 0.0000000000000000000, 1.000000000000000000 ) ) ;
#201 = CARTESIAN_POINT ( 'NONE',  ( 0.0000000000000000000, 0.0000000000000000000, 0.0000000000000000000 ) ) ;
#202 = DIRECTION ( 'NONE',  ( 1.000000000000000000, 0.0000000000000000000, 0.0000000000000000000 ) ) ;
#203 = CARTESIAN_POINT ( 'NONE',  ( 0.0000000000000000000, 0.0000000000000000000, 0.0000000000000000000 ) ) ;
#204 = DIRECTION ( 'NONE',  ( 0.0000000000000000000, 0.0000000000000000000, 1.000000000000000000 ) ) ;
#205 = DIRECTION ( 'NONE',  ( -0.0000000000000000000, -0.0000000000000000000, -1.000000000000000000 ) ) ;
#206 = VERTEX_POINT ( 'NONE', #160 ) ;
#207 = VERTEX_POINT ( 'NONE', #161 ) ;
#208 = VERTEX_POINT ( 'NONE', #162 ) ;
#209 = VERTEX_POINT ( 'NONE', #163 ) ;
#210 = CARTESIAN_POINT ( 'NONE',  ( 8.099999999999996100, 9.919639073093555300E-016, 3.000000000000000000 ) ) ;
#211 = CARTESIAN_POINT ( 'NONE',  ( -8.099999999999996100, 0.0000000000000000000, 3.000000000000000000 ) ) ;
#212 = VERTEX_POINT ( 'NONE', #164 ) ;
#213 = VERTEX_POINT ( 'NONE', #165 ) ;
#214 = VERTEX_POINT ( 'NONE', #166 ) ;
ENDSEC;
END-ISO-10303-21;
