ISO-10303-21;
HEADER;
FILE_DESCRIPTION (( 'STEP AP214' ),
    '1' );
FILE_NAME ('304DOR250-S1.step',
    '2017-07-07T05:02:40',
    ( 'install' ),
    ( '' ),
    'SwSTEP 2.0',
    'SolidWorks 2015',
    '' );
FILE_SCHEMA (( 'AUTOMOTIVE_DESIGN' ));
ENDSEC;

DATA;
#1 = EDGE_CURVE ( 'NONE', #102, #40, #86, .T. ) ;
#2 = ORIENTED_EDGE ( 'NONE', *, *, #67, .F. ) ;
#3 = DIRECTION ( 'NONE',  ( -0.0000000000000000000, -0.0000000000000000000, -1.000000000000000000 ) ) ;
#4 = CARTESIAN_POINT ( 'NONE',  ( 129.1649999999999900, 1.581815038118678800E-014, 0.0000000000000000000 ) ) ;
#5 = ORIENTED_EDGE ( 'NONE', *, *, #52, .F. ) ;
#6 = DIRECTION ( 'NONE',  ( 0.0000000000000000000, -1.000000000000000000, 0.0000000000000000000 ) ) ;
#7 = CIRCLE ( 'NONE', #42, 2.665000000000004500 ) ;
#8 = EDGE_LOOP ( 'NONE', ( #84, #16, #96, #110 ) ) ;
#9 = CLOSED_SHELL ( 'NONE', ( #28, #144, #126, #74 ) ) ;
#10 = ORIENTED_EDGE ( 'NONE', *, *, #1, .F. ) ;
#11 = TOROIDAL_SURFACE ( 'NONE', #54, 129.1649999999999900, 2.665000000000004500 ) ;
#12 = FILL_AREA_STYLE_COLOUR ( '', #149 ) ;
#13 = DIRECTION ( 'NONE',  ( -1.224646799147353200E-016, 1.000000000000000000, 0.0000000000000000000 ) ) ;
#14 = DIRECTION ( 'NONE',  ( -0.0000000000000000000, -0.0000000000000000000, -1.000000000000000000 ) ) ;
#15 = UNCERTAINTY_MEASURE_WITH_UNIT (LENGTH_MEASURE( 1.000000000000000100E-005 ), #34, 'distance_accuracy_value', 'NONE');
#16 = ORIENTED_EDGE ( 'NONE', *, *, #43, .F. ) ;
#17 = DIRECTION ( 'NONE',  ( -1.000000000000000000, 0.0000000000000000000, 0.0000000000000000000 ) ) ;
#18 = DIRECTION ( 'NONE',  ( -1.000000000000000000, 0.0000000000000000000, 0.0000000000000000000 ) ) ;
#19 = APPLICATION_PROTOCOL_DEFINITION ( 'draft international standard', 'automotive_design', 1998, #21 ) ;
#20 = ORIENTED_EDGE ( 'NONE', *, *, #78, .T. ) ;
#21 = APPLICATION_CONTEXT ( 'automotive_design' ) ;
#22 = ORIENTED_EDGE ( 'NONE', *, *, #1, .T. ) ;
#23 = DIRECTION ( 'NONE',  ( -0.0000000000000000000, -0.0000000000000000000, -1.000000000000000000 ) ) ;
#24 = ORIENTED_EDGE ( 'NONE', *, *, #78, .F. ) ;
#25 = EDGE_LOOP ( 'NONE', ( #5, #76, #20, #2 ) ) ;
#26 = PRODUCT_DEFINITION_CONTEXT ( 'detailed design', #21, 'design' ) ;
#27 = DIRECTION ( 'NONE',  ( 0.0000000000000000000, -1.000000000000000000, 0.0000000000000000000 ) ) ;
#28 = ADVANCED_FACE ( 'NONE', ( #156 ), #132, .T. ) ;
#29 =( NAMED_UNIT ( * ) SI_UNIT ( $, .STERADIAN. ) SOLID_ANGLE_UNIT ( ) );
#30 = AXIS2_PLACEMENT_3D ( 'NONE', #44, #3, #100 ) ;
#31 =( LENGTH_UNIT ( ) NAMED_UNIT ( * ) SI_UNIT ( .MILLI., .METRE. ) );
#32 = DIRECTION ( 'NONE',  ( -1.000000000000000000, 0.0000000000000000000, 0.0000000000000000000 ) ) ;
#33 = UNCERTAINTY_MEASURE_WITH_UNIT (LENGTH_MEASURE( 1.000000000000000100E-005 ), #145, 'distance_accuracy_value', 'NONE');
#34 =( LENGTH_UNIT ( ) NAMED_UNIT ( * ) SI_UNIT ( .MILLI., .METRE. ) );
#35 = FACE_OUTER_BOUND ( 'NONE', #8, .T. ) ;
#36 = DIRECTION ( 'NONE',  ( -1.000000000000000000, 0.0000000000000000000, 0.0000000000000000000 ) ) ;
#37 = CARTESIAN_POINT ( 'NONE',  ( 0.0000000000000000000, 0.0000000000000000000, 3.263683719727702000E-016 ) ) ;
#38 = DIRECTION ( 'NONE',  ( 1.000000000000000000, 0.0000000000000000000, 0.0000000000000000000 ) ) ;
#39 = CARTESIAN_POINT ( 'NONE',  ( -129.1649999999999900, 0.0000000000000000000, 0.0000000000000000000 ) ) ;
#40 = VERTEX_POINT ( 'NONE', #48 ) ;
#41 = STYLED_ITEM ( 'NONE', ( #148 ), #157 ) ;
#42 = AXIS2_PLACEMENT_3D ( 'NONE', #39, #27, #113 ) ;
#43 = EDGE_CURVE ( 'NONE', #40, #47, #7, .T. ) ;
#44 = CARTESIAN_POINT ( 'NONE',  ( 0.0000000000000000000, 0.0000000000000000000, 0.0000000000000000000 ) ) ;
#45 = PRODUCT_DEFINITION_SHAPE ( 'NONE', 'NONE',  #90 ) ;
#46 = CARTESIAN_POINT ( 'NONE',  ( 0.0000000000000000000, 0.0000000000000000000, 0.0000000000000000000 ) ) ;
#47 = VERTEX_POINT ( 'NONE', #125 ) ;
#48 = CARTESIAN_POINT ( 'NONE',  ( -126.5000000000000000, 0.0000000000000000000, 3.263683719727707400E-016 ) ) ;
#49 = CARTESIAN_POINT ( 'NONE',  ( 0.0000000000000000000, 0.0000000000000000000, 0.0000000000000000000 ) ) ;
#50 = AXIS2_PLACEMENT_3D ( 'NONE', #4, #70, #154 ) ;
#51 =( GEOMETRIC_REPRESENTATION_CONTEXT ( 3 ) GLOBAL_UNCERTAINTY_ASSIGNED_CONTEXT ( ( #15 ) ) GLOBAL_UNIT_ASSIGNED_CONTEXT ( ( #34, #152, #107 ) ) REPRESENTATION_CONTEXT ( 'NONE', 'WORKASPACE' ) );
#52 = EDGE_CURVE ( 'NONE', #47, #40, #71, .T. ) ;
#53 = CIRCLE ( 'NONE', #50, 2.665000000000000900 ) ;
#54 = AXIS2_PLACEMENT_3D ( 'NONE', #127, #14, #17 ) ;
#55 = PRODUCT ( '304DOR250-S1', '304DOR250-S1', '', ( #57 ) ) ;
#56 = CARTESIAN_POINT ( 'NONE',  ( 0.0000000000000000000, 0.0000000000000000000, 0.0000000000000000000 ) ) ;
#57 = PRODUCT_CONTEXT ( 'NONE', #64, 'mechanical' ) ;
#58 = AXIS2_PLACEMENT_3D ( 'NONE', #37, #23, #18 ) ;
#59 = DIRECTION ( 'NONE',  ( -0.0000000000000000000, -0.0000000000000000000, -1.000000000000000000 ) ) ;
#60 = EDGE_CURVE ( 'NONE', #81, #47, #65, .T. ) ;
#61 = ADVANCED_BREP_SHAPE_REPRESENTATION ( '304DOR250-S1', ( #157, #99 ), #143 ) ;
#62 = DIRECTION ( 'NONE',  ( -1.000000000000000000, 0.0000000000000000000, 0.0000000000000000000 ) ) ;
#63 = EDGE_LOOP ( 'NONE', ( #146, #136, #22, #89 ) ) ;
#64 = APPLICATION_CONTEXT ( 'automotive_design' ) ;
#65 = CIRCLE ( 'NONE', #119, 131.8300000000000100 ) ;
#66 = TOROIDAL_SURFACE ( 'NONE', #112, 129.1649999999999900, 2.665000000000004500 ) ;
#67 = EDGE_CURVE ( 'NONE', #40, #102, #122, .T. ) ;
#68 = DIRECTION ( 'NONE',  ( -1.000000000000000000, -1.224646799147357400E-016, 0.0000000000000000000 ) ) ;
#69 = FILL_AREA_STYLE ('',( #12 ) ) ;
#70 = DIRECTION ( 'NONE',  ( -1.224646799147353200E-016, 1.000000000000000000, 0.0000000000000000000 ) ) ;
#71 = CIRCLE ( 'NONE', #158, 2.665000000000004500 ) ;
#72 = ORIENTED_EDGE ( 'NONE', *, *, #52, .T. ) ;
#73 = PRODUCT_RELATED_PRODUCT_CATEGORY ( 'part', '', ( #55 ) ) ;
#74 = ADVANCED_FACE ( 'NONE', ( #88 ), #106, .T. ) ;
#75 = PRODUCT_DEFINITION_FORMATION_WITH_SPECIFIED_SOURCE ( 'ANY', '', #55, .NOT_KNOWN. ) ;
#76 = ORIENTED_EDGE ( 'NONE', *, *, #139, .T. ) ;
#77 = SHAPE_DEFINITION_REPRESENTATION ( #45, #61 ) ;
#78 = EDGE_CURVE ( 'NONE', #81, #102, #137, .T. ) ;
#79 = DIRECTION ( 'NONE',  ( 0.0000000000000000000, 0.0000000000000000000, 1.000000000000000000 ) ) ;
#80 = PRESENTATION_STYLE_ASSIGNMENT (( #115 ) ) ;
#81 = VERTEX_POINT ( 'NONE', #98 ) ;
#82 =( NAMED_UNIT ( * ) PLANE_ANGLE_UNIT ( ) SI_UNIT ( $, .RADIAN. ) );
#83 = DIRECTION ( 'NONE',  ( -0.0000000000000000000, -0.0000000000000000000, -1.000000000000000000 ) ) ;
#84 = ORIENTED_EDGE ( 'NONE', *, *, #139, .F. ) ;
#85 = DIRECTION ( 'NONE',  ( 0.0000000000000000000, 0.0000000000000000000, -1.000000000000000000 ) ) ;
#86 = CIRCLE ( 'NONE', #58, 126.5000000000000000 ) ;
#87 = FILL_AREA_STYLE ('',( #135 ) ) ;
#88 = FACE_OUTER_BOUND ( 'NONE', #63, .T. ) ;
#89 = ORIENTED_EDGE ( 'NONE', *, *, #43, .T. ) ;
#90 = PRODUCT_DEFINITION ( 'UNKNOWN', '', #75, #26 ) ;
#91 = SURFACE_STYLE_FILL_AREA ( #87 ) ;
#92 = DIRECTION ( 'NONE',  ( -0.0000000000000000000, -0.0000000000000000000, -1.000000000000000000 ) ) ;
#93 = SURFACE_STYLE_FILL_AREA ( #69 ) ;
#94 = COLOUR_RGB ( '',0.6980392156862744700, 0.6980392156862744700, 0.6980392156862744700 ) ;
#95 = CARTESIAN_POINT ( 'NONE',  ( 129.1649999999999900, 1.581815038118678800E-014, 0.0000000000000000000 ) ) ;
#96 = ORIENTED_EDGE ( 'NONE', *, *, #67, .T. ) ;
#97 = FACE_OUTER_BOUND ( 'NONE', #25, .T. ) ;
#98 = CARTESIAN_POINT ( 'NONE',  ( 131.8300000000000100, 1.614451875315955500E-014, 0.0000000000000000000 ) ) ;
#99 = AXIS2_PLACEMENT_3D ( 'NONE', #140, #79, #38 ) ;
#100 = DIRECTION ( 'NONE',  ( -1.000000000000000000, 0.0000000000000000000, 0.0000000000000000000 ) ) ;
#101 = SURFACE_STYLE_USAGE ( .BOTH. , #121 ) ;
#102 = VERTEX_POINT ( 'NONE', #108 ) ;
#103 = CIRCLE ( 'NONE', #117, 131.8300000000000100 ) ;
#104 = AXIS2_PLACEMENT_3D ( 'NONE', #49, #59, #62 ) ;
#105 = ORIENTED_EDGE ( 'NONE', *, *, #60, .T. ) ;
#106 = TOROIDAL_SURFACE ( 'NONE', #104, 129.1649999999999900, 2.665000000000004500 ) ;
#107 =( NAMED_UNIT ( * ) SI_UNIT ( $, .STERADIAN. ) SOLID_ANGLE_UNIT ( ) );
#108 = CARTESIAN_POINT ( 'NONE',  ( 126.5000000000000000, 1.549178200921401800E-014, 0.0000000000000000000 ) ) ;
#109 = DIRECTION ( 'NONE',  ( -0.0000000000000000000, -0.0000000000000000000, -1.000000000000000000 ) ) ;
#110 = ORIENTED_EDGE ( 'NONE', *, *, #130, .T. ) ;
#111 = CARTESIAN_POINT ( 'NONE',  ( 0.0000000000000000000, 0.0000000000000000000, 3.263683719727702000E-016 ) ) ;
#112 = AXIS2_PLACEMENT_3D ( 'NONE', #124, #92, #32 ) ;
#113 = DIRECTION ( 'NONE',  ( 0.0000000000000000000, 0.0000000000000000000, -1.000000000000000000 ) ) ;
#114 = DIRECTION ( 'NONE',  ( -1.000000000000000000, 0.0000000000000000000, 0.0000000000000000000 ) ) ;
#115 = SURFACE_STYLE_USAGE ( .BOTH. , #129 ) ;
#116 =( NAMED_UNIT ( * ) PLANE_ANGLE_UNIT ( ) SI_UNIT ( $, .RADIAN. ) );
#117 = AXIS2_PLACEMENT_3D ( 'NONE', #46, #123, #36 ) ;
#118 =( NAMED_UNIT ( * ) SI_UNIT ( $, .STERADIAN. ) SOLID_ANGLE_UNIT ( ) );
#119 = AXIS2_PLACEMENT_3D ( 'NONE', #56, #109, #114 ) ;
#120 = MECHANICAL_DESIGN_GEOMETRIC_PRESENTATION_REPRESENTATION (  '', ( #41 ), #51 ) ;
#121 = SURFACE_SIDE_STYLE ('',( #93 ) ) ;
#122 = CIRCLE ( 'NONE', #150, 126.5000000000000000 ) ;
#123 = DIRECTION ( 'NONE',  ( -0.0000000000000000000, -0.0000000000000000000, -1.000000000000000000 ) ) ;
#124 = CARTESIAN_POINT ( 'NONE',  ( 0.0000000000000000000, 0.0000000000000000000, 0.0000000000000000000 ) ) ;
#125 = CARTESIAN_POINT ( 'NONE',  ( -131.8300000000000100, 0.0000000000000000000, 0.0000000000000000000 ) ) ;
#126 = ADVANCED_FACE ( 'NONE', ( #35 ), #66, .T. ) ;
#127 = CARTESIAN_POINT ( 'NONE',  ( 0.0000000000000000000, 0.0000000000000000000, 0.0000000000000000000 ) ) ;
#128 =( GEOMETRIC_REPRESENTATION_CONTEXT ( 3 ) GLOBAL_UNCERTAINTY_ASSIGNED_CONTEXT ( ( #33 ) ) GLOBAL_UNIT_ASSIGNED_CONTEXT ( ( #145, #82, #118 ) ) REPRESENTATION_CONTEXT ( 'NONE', 'WORKASPACE' ) );
#129 = SURFACE_SIDE_STYLE ('',( #91 ) ) ;
#130 = EDGE_CURVE ( 'NONE', #102, #81, #53, .T. ) ;
#131 = MECHANICAL_DESIGN_GEOMETRIC_PRESENTATION_REPRESENTATION (  '', ( #142 ), #128 ) ;
#132 = TOROIDAL_SURFACE ( 'NONE', #30, 129.1649999999999900, 2.665000000000004500 ) ;
#133 = UNCERTAINTY_MEASURE_WITH_UNIT (LENGTH_MEASURE( 1.000000000000000100E-005 ), #31, 'distance_accuracy_value', 'NONE');
#134 = AXIS2_PLACEMENT_3D ( 'NONE', #95, #13, #68 ) ;
#135 = FILL_AREA_STYLE_COLOUR ( '', #94 ) ;
#136 = ORIENTED_EDGE ( 'NONE', *, *, #130, .F. ) ;
#137 = CIRCLE ( 'NONE', #134, 2.665000000000000900 ) ;
#138 = PRESENTATION_LAYER_ASSIGNMENT (  '', '', ( #142 ) ) ;
#139 = EDGE_CURVE ( 'NONE', #47, #81, #103, .T. ) ;
#140 = CARTESIAN_POINT ( 'NONE',  ( 0.0000000000000000000, 0.0000000000000000000, 0.0000000000000000000 ) ) ;
#141 = APPLICATION_PROTOCOL_DEFINITION ( 'draft international standard', 'automotive_design', 1998, #64 ) ;
#142 = STYLED_ITEM ( 'NONE', ( #80 ), #61 ) ;
#143 =( GEOMETRIC_REPRESENTATION_CONTEXT ( 3 ) GLOBAL_UNCERTAINTY_ASSIGNED_CONTEXT ( ( #133 ) ) GLOBAL_UNIT_ASSIGNED_CONTEXT ( ( #31, #116, #29 ) ) REPRESENTATION_CONTEXT ( 'NONE', 'WORKASPACE' ) );
#144 = ADVANCED_FACE ( 'NONE', ( #97 ), #11, .T. ) ;
#145 =( LENGTH_UNIT ( ) NAMED_UNIT ( * ) SI_UNIT ( .MILLI., .METRE. ) );
#146 = ORIENTED_EDGE ( 'NONE', *, *, #60, .F. ) ;
#147 = DIRECTION ( 'NONE',  ( -1.000000000000000000, 0.0000000000000000000, 0.0000000000000000000 ) ) ;
#148 = PRESENTATION_STYLE_ASSIGNMENT (( #101 ) ) ;
#149 = COLOUR_RGB ( '',0.6980392156862744700, 0.6980392156862744700, 0.6980392156862744700 ) ;
#150 = AXIS2_PLACEMENT_3D ( 'NONE', #111, #83, #147 ) ;
#151 = EDGE_LOOP ( 'NONE', ( #24, #105, #72, #10 ) ) ;
#152 =( NAMED_UNIT ( * ) PLANE_ANGLE_UNIT ( ) SI_UNIT ( $, .RADIAN. ) );
#153 = PRESENTATION_LAYER_ASSIGNMENT (  '', '', ( #41 ) ) ;
#154 = DIRECTION ( 'NONE',  ( -1.000000000000000000, -1.224646799147357400E-016, 0.0000000000000000000 ) ) ;
#155 = CARTESIAN_POINT ( 'NONE',  ( -129.1649999999999900, 0.0000000000000000000, 0.0000000000000000000 ) ) ;
#156 = FACE_OUTER_BOUND ( 'NONE', #151, .T. ) ;
#157 = MANIFOLD_SOLID_BREP ( 'Rotation1', #9 ) ;
#158 = AXIS2_PLACEMENT_3D ( 'NONE', #155, #6, #85 ) ;
ENDSEC;
END-ISO-10303-21;
