ISO-10303-21;
HEADER;
FILE_DESCRIPTION (( 'STEP AP214' ),
    '1' );
FILE_NAME ('490DFL040-ID39-S-S10.stp',
    '2017-10-11T09:28:20',
    ( '' ),
    ( '' ),
    'SwSTEP 2.0',
    'SolidWorks 2015',
    '' );
FILE_SCHEMA (( 'AUTOMOTIVE_DESIGN' ));
ENDSEC;

DATA;
#1 =( GEOMETRIC_REPRESENTATION_CONTEXT ( 3 ) GLOBAL_UNCERTAINTY_ASSIGNED_CONTEXT ( ( #40 ) ) GLOBAL_UNIT_ASSIGNED_CONTEXT ( ( #78, #23, #130 ) ) REPRESENTATION_CONTEXT ( 'NONE', 'WORKASPACE' ) );
#2 = VERTEX_POINT ( 'NONE', #163 ) ;
#3 = EDGE_LOOP ( 'NONE', ( #58, #89, #24, #183 ) ) ;
#4 = EDGE_CURVE ( 'NONE', #191, #115, #73, .T. ) ;
#5 = CIRCLE ( 'NONE', #153, 19.39999999999999900 ) ;
#6 = ADVANCED_FACE ( 'NONE', ( #93 ), #66, .F. ) ;
#7 = ORIENTED_EDGE ( 'NONE', *, *, #152, .T. ) ;
#8 = DIRECTION ( 'NONE',  ( 0.0000000000000000000, 0.0000000000000000000, 1.000000000000000000 ) ) ;
#9 = ORIENTED_EDGE ( 'NONE', *, *, #205, .F. ) ;
#10 = PRODUCT_RELATED_PRODUCT_CATEGORY ( 'part', '', ( #156 ) ) ;
#11 = CARTESIAN_POINT ( 'NONE',  ( -24.07500000000000300, 2.948337168947253100E-015, -2.000000000000000000 ) ) ;
#12 = EDGE_LOOP ( 'NONE', ( #15, #108, #213, #178 ) ) ;
#13 = PLANE ( 'NONE',  #57 ) ;
#14 =( LENGTH_UNIT ( ) NAMED_UNIT ( * ) SI_UNIT ( .MILLI., .METRE. ) );
#15 = ORIENTED_EDGE ( 'NONE', *, *, #72, .F. ) ;
#16 = PLANE ( 'NONE',  #91 ) ;
#17 = CIRCLE ( 'NONE', #142, 24.07500000000000300 ) ;
#18 = CIRCLE ( 'NONE', #97, 24.07500000000000300 ) ;
#19 = VERTEX_POINT ( 'NONE', #63 ) ;
#20 = AXIS2_PLACEMENT_3D ( 'NONE', #42, #103, #145 ) ;
#21 = VECTOR ( 'NONE', #8, 1000.000000000000000 ) ;
#22 = DIRECTION ( 'NONE',  ( 1.000000000000000000, 0.0000000000000000000, -0.0000000000000000000 ) ) ;
#23 =( NAMED_UNIT ( * ) PLANE_ANGLE_UNIT ( ) SI_UNIT ( $, .RADIAN. ) );
#24 = ORIENTED_EDGE ( 'NONE', *, *, #67, .T. ) ;
#25 = DIRECTION ( 'NONE',  ( 0.0000000000000000000, 0.0000000000000000000, 1.000000000000000000 ) ) ;
#26 = LINE ( 'NONE', #84, #188 ) ;
#27 = FILL_AREA_STYLE_COLOUR ( '', #96 ) ;
#28 = DIRECTION ( 'NONE',  ( 0.0000000000000000000, 0.0000000000000000000, 1.000000000000000000 ) ) ;
#29 = FACE_OUTER_BOUND ( 'NONE', #30, .T. ) ;
#30 = EDGE_LOOP ( 'NONE', ( #9, #125, #39, #204 ) ) ;
#31 = EDGE_LOOP ( 'NONE', ( #171, #175 ) ) ;
#32 = FACE_OUTER_BOUND ( 'NONE', #99, .T. ) ;
#33 = PRODUCT_DEFINITION_CONTEXT ( 'detailed design', #207, 'design' ) ;
#34 = DIRECTION ( 'NONE',  ( 0.0000000000000000000, 0.0000000000000000000, 1.000000000000000000 ) ) ;
#35 =( NAMED_UNIT ( * ) PLANE_ANGLE_UNIT ( ) SI_UNIT ( $, .RADIAN. ) );
#36 = FACE_BOUND ( 'NONE', #31, .T. ) ;
#37 = DIRECTION ( 'NONE',  ( 0.0000000000000000000, 0.0000000000000000000, 1.000000000000000000 ) ) ;
#38 = FILL_AREA_STYLE ('',( #27 ) ) ;
#39 = ORIENTED_EDGE ( 'NONE', *, *, #4, .T. ) ;
#40 = UNCERTAINTY_MEASURE_WITH_UNIT (LENGTH_MEASURE( 1.000000000000000100E-005 ), #78, 'distance_accuracy_value', 'NONE');
#41 = CIRCLE ( 'NONE', #137, 24.07500000000000300 ) ;
#42 = CARTESIAN_POINT ( 'NONE',  ( 0.0000000000000000000, 0.0000000000000000000, -2.000000000000000000 ) ) ;
#43 = DIRECTION ( 'NONE',  ( 1.000000000000000000, 0.0000000000000000000, 0.0000000000000000000 ) ) ;
#44 = CARTESIAN_POINT ( 'NONE',  ( 0.0000000000000000000, 0.0000000000000000000, 0.0000000000000000000 ) ) ;
#45 = AXIS2_PLACEMENT_3D ( 'NONE', #111, #206, #190 ) ;
#46 = DIRECTION ( 'NONE',  ( 0.0000000000000000000, 0.0000000000000000000, 1.000000000000000000 ) ) ;
#47 = DIRECTION ( 'NONE',  ( 1.000000000000000000, 0.0000000000000000000, 0.0000000000000000000 ) ) ;
#48 = VERTEX_POINT ( 'NONE', #114 ) ;
#49 = UNCERTAINTY_MEASURE_WITH_UNIT (LENGTH_MEASURE( 1.000000000000000100E-005 ), #150, 'distance_accuracy_value', 'NONE');
#50 = ORIENTED_EDGE ( 'NONE', *, *, #110, .F. ) ;
#51 = EDGE_CURVE ( 'NONE', #48, #139, #65, .T. ) ;
#52 = SHAPE_DEFINITION_REPRESENTATION ( #180, #109 ) ;
#53 = ORIENTED_EDGE ( 'NONE', *, *, #127, .F. ) ;
#54 = ADVANCED_FACE ( 'NONE', ( #201, #69 ), #16, .F. ) ;
#55 = ORIENTED_EDGE ( 'NONE', *, *, #85, .F. ) ;
#56 = AXIS2_PLACEMENT_3D ( 'NONE', #196, #158, #105 ) ;
#57 = AXIS2_PLACEMENT_3D ( 'NONE', #170, #129, #22 ) ;
#58 = ORIENTED_EDGE ( 'NONE', *, *, #197, .F. ) ;
#59 = VECTOR ( 'NONE', #28, 1000.000000000000000 ) ;
#60 = DIRECTION ( 'NONE',  ( 1.000000000000000000, 0.0000000000000000000, 0.0000000000000000000 ) ) ;
#61 = CYLINDRICAL_SURFACE ( 'NONE', #20, 24.07500000000000300 ) ;
#62 = CARTESIAN_POINT ( 'NONE',  ( 0.0000000000000000000, 0.0000000000000000000, 0.0000000000000000000 ) ) ;
#63 = CARTESIAN_POINT ( 'NONE',  ( -19.39999999999999900, 2.375814790345864800E-015, -2.000000000000000000 ) ) ;
#64 = CIRCLE ( 'NONE', #45, 19.39999999999999900 ) ;
#65 = CIRCLE ( 'NONE', #165, 24.07500000000000300 ) ;
#66 = CYLINDRICAL_SURFACE ( 'NONE', #118, 19.39999999999999900 ) ;
#67 = EDGE_CURVE ( 'NONE', #90, #115, #76, .T. ) ;
#68 = PRESENTATION_LAYER_ASSIGNMENT (  '', '', ( #161 ) ) ;
#69 = FACE_OUTER_BOUND ( 'NONE', #135, .T. ) ;
#70 = ADVANCED_FACE ( 'NONE', ( #92 ), #126, .T. ) ;
#71 = SURFACE_STYLE_FILL_AREA ( #79 ) ;
#72 = EDGE_CURVE ( 'NONE', #139, #83, #81, .T. ) ;
#73 = LINE ( 'NONE', #95, #59 ) ;
#74 = DIRECTION ( 'NONE',  ( 1.000000000000000000, 0.0000000000000000000, -0.0000000000000000000 ) ) ;
#75 = DIRECTION ( 'NONE',  ( 0.0000000000000000000, 0.0000000000000000000, 1.000000000000000000 ) ) ;
#76 = CIRCLE ( 'NONE', #123, 19.39999999999999900 ) ;
#77 =( NAMED_UNIT ( * ) SI_UNIT ( $, .STERADIAN. ) SOLID_ANGLE_UNIT ( ) );
#78 =( LENGTH_UNIT ( ) NAMED_UNIT ( * ) SI_UNIT ( .MILLI., .METRE. ) );
#79 = FILL_AREA_STYLE ('',( #209 ) ) ;
#80 = DIRECTION ( 'NONE',  ( 1.000000000000000000, 0.0000000000000000000, 0.0000000000000000000 ) ) ;
#81 = LINE ( 'NONE', #136, #154 ) ;
#82 = CARTESIAN_POINT ( 'NONE',  ( 0.0000000000000000000, 0.0000000000000000000, -2.000000000000000000 ) ) ;
#83 = VERTEX_POINT ( 'NONE', #200 ) ;
#84 = CARTESIAN_POINT ( 'NONE',  ( -19.39999999999999900, 2.375814790345864800E-015, -2.000000000000000000 ) ) ;
#85 = EDGE_CURVE ( 'NONE', #2, #83, #17, .T. ) ;
#86 = LINE ( 'NONE', #210, #21 ) ;
#87 = DIRECTION ( 'NONE',  ( 1.000000000000000000, 0.0000000000000000000, 0.0000000000000000000 ) ) ;
#88 = CARTESIAN_POINT ( 'NONE',  ( -19.39999999999999900, 2.375814790345864800E-015, 0.0000000000000000000 ) ) ;
#89 = ORIENTED_EDGE ( 'NONE', *, *, #205, .T. ) ;
#90 = VERTEX_POINT ( 'NONE', #88 ) ;
#91 = AXIS2_PLACEMENT_3D ( 'NONE', #82, #189, #74 ) ;
#92 = FACE_OUTER_BOUND ( 'NONE', #12, .T. ) ;
#93 = FACE_OUTER_BOUND ( 'NONE', #3, .T. ) ;
#94 = CIRCLE ( 'NONE', #169, 19.39999999999999900 ) ;
#95 = CARTESIAN_POINT ( 'NONE',  ( 19.39999999999999900, 0.0000000000000000000, -2.000000000000000000 ) ) ;
#96 = COLOUR_RGB ( '',0.7529411764705882200, 0.7529411764705882200, 0.7529411764705882200 ) ;
#97 = AXIS2_PLACEMENT_3D ( 'NONE', #212, #195, #60 ) ;
#98 = CARTESIAN_POINT ( 'NONE',  ( 0.0000000000000000000, 0.0000000000000000000, -2.000000000000000000 ) ) ;
#99 = EDGE_LOOP ( 'NONE', ( #186, #144, #55, #50 ) ) ;
#100 = CARTESIAN_POINT ( 'NONE',  ( 0.0000000000000000000, 0.0000000000000000000, 0.0000000000000000000 ) ) ;
#101 = SURFACE_STYLE_USAGE ( .BOTH. , #173 ) ;
#102 = CLOSED_SHELL ( 'NONE', ( #6, #140, #70, #54, #202, #167 ) ) ;
#103 = DIRECTION ( 'NONE',  ( 0.0000000000000000000, 0.0000000000000000000, 1.000000000000000000 ) ) ;
#104 = STYLED_ITEM ( 'NONE', ( #131 ), #203 ) ;
#105 = DIRECTION ( 'NONE',  ( 1.000000000000000000, 0.0000000000000000000, 0.0000000000000000000 ) ) ;
#106 = EDGE_LOOP ( 'NONE', ( #107, #187 ) ) ;
#107 = ORIENTED_EDGE ( 'NONE', *, *, #133, .T. ) ;
#108 = ORIENTED_EDGE ( 'NONE', *, *, #127, .T. ) ;
#109 = ADVANCED_BREP_SHAPE_REPRESENTATION ( '490DFL040-ID39-S-S10', ( #203, #193 ), #1 ) ;
#110 = EDGE_CURVE ( 'NONE', #48, #2, #86, .T. ) ;
#111 = CARTESIAN_POINT ( 'NONE',  ( 0.0000000000000000000, 0.0000000000000000000, 0.0000000000000000000 ) ) ;
#112 = CYLINDRICAL_SURFACE ( 'NONE', #56, 19.39999999999999900 ) ;
#113 = DIRECTION ( 'NONE',  ( 0.0000000000000000000, 0.0000000000000000000, 1.000000000000000000 ) ) ;
#114 = CARTESIAN_POINT ( 'NONE',  ( 24.07500000000000300, 0.0000000000000000000, -2.000000000000000000 ) ) ;
#115 = VERTEX_POINT ( 'NONE', #162 ) ;
#116 = CARTESIAN_POINT ( 'NONE',  ( 0.0000000000000000000, 0.0000000000000000000, -2.000000000000000000 ) ) ;
#117 = DIRECTION ( 'NONE',  ( 1.000000000000000000, 0.0000000000000000000, 0.0000000000000000000 ) ) ;
#118 = AXIS2_PLACEMENT_3D ( 'NONE', #174, #143, #87 ) ;
#119 = PRESENTATION_LAYER_ASSIGNMENT (  '', '', ( #104 ) ) ;
#120 = FACE_OUTER_BOUND ( 'NONE', #132, .T. ) ;
#121 = CARTESIAN_POINT ( 'NONE',  ( 0.0000000000000000000, 0.0000000000000000000, -2.000000000000000000 ) ) ;
#122 = PRESENTATION_STYLE_ASSIGNMENT (( #101 ) ) ;
#123 = AXIS2_PLACEMENT_3D ( 'NONE', #214, #198, #47 ) ;
#124 = SURFACE_STYLE_FILL_AREA ( #38 ) ;
#125 = ORIENTED_EDGE ( 'NONE', *, *, #133, .F. ) ;
#126 = CYLINDRICAL_SURFACE ( 'NONE', #160, 24.07500000000000300 ) ;
#127 = EDGE_CURVE ( 'NONE', #139, #48, #18, .T. ) ;
#128 = PRODUCT_DEFINITION ( 'UNKNOWN', '', #155, #33 ) ;
#129 = DIRECTION ( 'NONE',  ( 0.0000000000000000000, 0.0000000000000000000, 1.000000000000000000 ) ) ;
#130 =( NAMED_UNIT ( * ) SI_UNIT ( $, .STERADIAN. ) SOLID_ANGLE_UNIT ( ) );
#131 = PRESENTATION_STYLE_ASSIGNMENT (( #176 ) ) ;
#132 = EDGE_LOOP ( 'NONE', ( #168, #7 ) ) ;
#133 = EDGE_CURVE ( 'NONE', #191, #19, #5, .T. ) ;
#134 = PRODUCT_CONTEXT ( 'NONE', #157, 'mechanical' ) ;
#135 = EDGE_LOOP ( 'NONE', ( #141, #53 ) ) ;
#136 = CARTESIAN_POINT ( 'NONE',  ( -24.07500000000000300, 2.948337168947253100E-015, -2.000000000000000000 ) ) ;
#137 = AXIS2_PLACEMENT_3D ( 'NONE', #62, #159, #43 ) ;
#138 = APPLICATION_PROTOCOL_DEFINITION ( 'draft international standard', 'automotive_design', 1998, #207 ) ;
#139 = VERTEX_POINT ( 'NONE', #11 ) ;
#140 = ADVANCED_FACE ( 'NONE', ( #32 ), #61, .T. ) ;
#141 = ORIENTED_EDGE ( 'NONE', *, *, #51, .F. ) ;
#142 = AXIS2_PLACEMENT_3D ( 'NONE', #44, #149, #80 ) ;
#143 = DIRECTION ( 'NONE',  ( 0.0000000000000000000, 0.0000000000000000000, 1.000000000000000000 ) ) ;
#144 = ORIENTED_EDGE ( 'NONE', *, *, #72, .T. ) ;
#145 = DIRECTION ( 'NONE',  ( 1.000000000000000000, 0.0000000000000000000, 0.0000000000000000000 ) ) ;
#146 = APPLICATION_PROTOCOL_DEFINITION ( 'draft international standard', 'automotive_design', 1998, #157 ) ;
#147 = DIRECTION ( 'NONE',  ( 1.000000000000000000, 0.0000000000000000000, 0.0000000000000000000 ) ) ;
#148 = CARTESIAN_POINT ( 'NONE',  ( 19.39999999999999900, 0.0000000000000000000, -2.000000000000000000 ) ) ;
#149 = DIRECTION ( 'NONE',  ( 0.0000000000000000000, 0.0000000000000000000, 1.000000000000000000 ) ) ;
#150 =( LENGTH_UNIT ( ) NAMED_UNIT ( * ) SI_UNIT ( .MILLI., .METRE. ) );
#151 =( GEOMETRIC_REPRESENTATION_CONTEXT ( 3 ) GLOBAL_UNCERTAINTY_ASSIGNED_CONTEXT ( ( #49 ) ) GLOBAL_UNIT_ASSIGNED_CONTEXT ( ( #150, #194, #182 ) ) REPRESENTATION_CONTEXT ( 'NONE', 'WORKASPACE' ) );
#152 = EDGE_CURVE ( 'NONE', #83, #2, #41, .T. ) ;
#153 = AXIS2_PLACEMENT_3D ( 'NONE', #98, #37, #147 ) ;
#154 = VECTOR ( 'NONE', #199, 1000.000000000000000 ) ;
#155 = PRODUCT_DEFINITION_FORMATION_WITH_SPECIFIED_SOURCE ( 'ANY', '', #156, .NOT_KNOWN. ) ;
#156 = PRODUCT ( '490DFL040-ID39-S-S10', '490DFL040-ID39-S-S10', '', ( #134 ) ) ;
#157 = APPLICATION_CONTEXT ( 'automotive_design' ) ;
#158 = DIRECTION ( 'NONE',  ( 0.0000000000000000000, 0.0000000000000000000, 1.000000000000000000 ) ) ;
#159 = DIRECTION ( 'NONE',  ( 0.0000000000000000000, 0.0000000000000000000, 1.000000000000000000 ) ) ;
#160 = AXIS2_PLACEMENT_3D ( 'NONE', #116, #25, #211 ) ;
#161 = STYLED_ITEM ( 'NONE', ( #122 ), #109 ) ;
#162 = CARTESIAN_POINT ( 'NONE',  ( 19.39999999999999900, 0.0000000000000000000, 0.0000000000000000000 ) ) ;
#163 = CARTESIAN_POINT ( 'NONE',  ( 24.07500000000000300, 0.0000000000000000000, 0.0000000000000000000 ) ) ;
#164 = COLOUR_RGB ( '',0.7529411764705882200, 0.7529411764705882200, 0.7529411764705882200 ) ;
#165 = AXIS2_PLACEMENT_3D ( 'NONE', #121, #34, #177 ) ;
#166 = MECHANICAL_DESIGN_GEOMETRIC_PRESENTATION_REPRESENTATION (  '', ( #161 ), #185 ) ;
#167 = ADVANCED_FACE ( 'NONE', ( #29 ), #112, .F. ) ;
#168 = ORIENTED_EDGE ( 'NONE', *, *, #85, .T. ) ;
#169 = AXIS2_PLACEMENT_3D ( 'NONE', #208, #75, #192 ) ;
#170 = CARTESIAN_POINT ( 'NONE',  ( 0.0000000000000000000, 0.0000000000000000000, 0.0000000000000000000 ) ) ;
#171 = ORIENTED_EDGE ( 'NONE', *, *, #184, .F. ) ;
#172 = SURFACE_SIDE_STYLE ('',( #124 ) ) ;
#173 = SURFACE_SIDE_STYLE ('',( #71 ) ) ;
#174 = CARTESIAN_POINT ( 'NONE',  ( 0.0000000000000000000, 0.0000000000000000000, -2.000000000000000000 ) ) ;
#175 = ORIENTED_EDGE ( 'NONE', *, *, #67, .F. ) ;
#176 = SURFACE_STYLE_USAGE ( .BOTH. , #172 ) ;
#177 = DIRECTION ( 'NONE',  ( 1.000000000000000000, 0.0000000000000000000, 0.0000000000000000000 ) ) ;
#178 = ORIENTED_EDGE ( 'NONE', *, *, #152, .F. ) ;
#179 = MECHANICAL_DESIGN_GEOMETRIC_PRESENTATION_REPRESENTATION (  '', ( #104 ), #151 ) ;
#180 = PRODUCT_DEFINITION_SHAPE ( 'NONE', 'NONE',  #128 ) ;
#181 = UNCERTAINTY_MEASURE_WITH_UNIT (LENGTH_MEASURE( 1.000000000000000100E-005 ), #14, 'distance_accuracy_value', 'NONE');
#182 =( NAMED_UNIT ( * ) SI_UNIT ( $, .STERADIAN. ) SOLID_ANGLE_UNIT ( ) );
#183 = ORIENTED_EDGE ( 'NONE', *, *, #4, .F. ) ;
#184 = EDGE_CURVE ( 'NONE', #115, #90, #64, .T. ) ;
#185 =( GEOMETRIC_REPRESENTATION_CONTEXT ( 3 ) GLOBAL_UNCERTAINTY_ASSIGNED_CONTEXT ( ( #181 ) ) GLOBAL_UNIT_ASSIGNED_CONTEXT ( ( #14, #35, #77 ) ) REPRESENTATION_CONTEXT ( 'NONE', 'WORKASPACE' ) );
#186 = ORIENTED_EDGE ( 'NONE', *, *, #51, .T. ) ;
#187 = ORIENTED_EDGE ( 'NONE', *, *, #197, .T. ) ;
#188 = VECTOR ( 'NONE', #113, 1000.000000000000000 ) ;
#189 = DIRECTION ( 'NONE',  ( 0.0000000000000000000, 0.0000000000000000000, 1.000000000000000000 ) ) ;
#190 = DIRECTION ( 'NONE',  ( 1.000000000000000000, 0.0000000000000000000, 0.0000000000000000000 ) ) ;
#191 = VERTEX_POINT ( 'NONE', #148 ) ;
#192 = DIRECTION ( 'NONE',  ( 1.000000000000000000, 0.0000000000000000000, 0.0000000000000000000 ) ) ;
#193 = AXIS2_PLACEMENT_3D ( 'NONE', #100, #46, #117 ) ;
#194 =( NAMED_UNIT ( * ) PLANE_ANGLE_UNIT ( ) SI_UNIT ( $, .RADIAN. ) );
#195 = DIRECTION ( 'NONE',  ( 0.0000000000000000000, 0.0000000000000000000, 1.000000000000000000 ) ) ;
#196 = CARTESIAN_POINT ( 'NONE',  ( 0.0000000000000000000, 0.0000000000000000000, -2.000000000000000000 ) ) ;
#197 = EDGE_CURVE ( 'NONE', #19, #191, #94, .T. ) ;
#198 = DIRECTION ( 'NONE',  ( 0.0000000000000000000, 0.0000000000000000000, 1.000000000000000000 ) ) ;
#199 = DIRECTION ( 'NONE',  ( 0.0000000000000000000, 0.0000000000000000000, 1.000000000000000000 ) ) ;
#200 = CARTESIAN_POINT ( 'NONE',  ( -24.07500000000000300, 2.948337168947253100E-015, 0.0000000000000000000 ) ) ;
#201 = FACE_BOUND ( 'NONE', #106, .T. ) ;
#202 = ADVANCED_FACE ( 'NONE', ( #36, #120 ), #13, .T. ) ;
#203 = MANIFOLD_SOLID_BREP ( 'Aufsatz-Linear austragen1', #102 ) ;
#204 = ORIENTED_EDGE ( 'NONE', *, *, #184, .T. ) ;
#205 = EDGE_CURVE ( 'NONE', #19, #90, #26, .T. ) ;
#206 = DIRECTION ( 'NONE',  ( 0.0000000000000000000, 0.0000000000000000000, 1.000000000000000000 ) ) ;
#207 = APPLICATION_CONTEXT ( 'automotive_design' ) ;
#208 = CARTESIAN_POINT ( 'NONE',  ( 0.0000000000000000000, 0.0000000000000000000, -2.000000000000000000 ) ) ;
#209 = FILL_AREA_STYLE_COLOUR ( '', #164 ) ;
#210 = CARTESIAN_POINT ( 'NONE',  ( 24.07500000000000300, 0.0000000000000000000, -2.000000000000000000 ) ) ;
#211 = DIRECTION ( 'NONE',  ( 1.000000000000000000, 0.0000000000000000000, 0.0000000000000000000 ) ) ;
#212 = CARTESIAN_POINT ( 'NONE',  ( 0.0000000000000000000, 0.0000000000000000000, -2.000000000000000000 ) ) ;
#213 = ORIENTED_EDGE ( 'NONE', *, *, #110, .T. ) ;
#214 = CARTESIAN_POINT ( 'NONE',  ( 0.0000000000000000000, 0.0000000000000000000, 0.0000000000000000000 ) ) ;
ENDSEC;
END-ISO-10303-21;
