ISO-10303-21;
HEADER;
FILE_DESCRIPTION (( 'STEP AP214' ),
    '1' );
FILE_NAME ('690DDR800.step',
    '2017-07-10T05:46:06',
    ( 'install' ),
    ( '' ),
    'SwSTEP 2.0',
    'SolidWorks 2015',
    '' );
FILE_SCHEMA (( 'AUTOMOTIVE_DESIGN' ));
ENDSEC;

DATA;
#1 = VERTEX_POINT ( 'NONE', #151 ) ;
#2 = FILL_AREA_STYLE ('',( #79 ) ) ;
#3 = CARTESIAN_POINT ( 'NONE',  ( 418.6000000000000200, 0.0000000000000000000, 0.0000000000000000000 ) ) ;
#4 = DIRECTION ( 'NONE',  ( -0.0000000000000000000, -0.0000000000000000000, 1.000000000000000000 ) ) ;
#5 = ORIENTED_EDGE ( 'NONE', *, *, #38, .F. ) ;
#6 =( LENGTH_UNIT ( ) NAMED_UNIT ( * ) SI_UNIT ( .MILLI., .METRE. ) );
#7 = CARTESIAN_POINT ( 'NONE',  ( 0.0000000000000000000, 0.0000000000000000000, -1.224646799147355700E-016 ) ) ;
#8 = AXIS2_PLACEMENT_3D ( 'NONE', #104, #32, #117 ) ;
#9 = EDGE_CURVE ( 'NONE', #62, #77, #156, .T. ) ;
#10 = ORIENTED_EDGE ( 'NONE', *, *, #44, .T. ) ;
#11 = TOROIDAL_SURFACE ( 'NONE', #13, 418.6000000000000200, 1.000000000000002000 ) ;
#12 = ORIENTED_EDGE ( 'NONE', *, *, #26, .T. ) ;
#13 = AXIS2_PLACEMENT_3D ( 'NONE', #127, #54, #142 ) ;
#14 = EDGE_CURVE ( 'NONE', #1, #81, #112, .T. ) ;
#15 = SURFACE_STYLE_USAGE ( .BOTH. , #91 ) ;
#16 = CLOSED_SHELL ( 'NONE', ( #23, #85, #134, #39 ) ) ;
#17 = DIRECTION ( 'NONE',  ( 0.0000000000000000000, 0.0000000000000000000, -1.000000000000000000 ) ) ;
#18 = CARTESIAN_POINT ( 'NONE',  ( 0.0000000000000000000, 0.0000000000000000000, 0.0000000000000000000 ) ) ;
#19 =( NAMED_UNIT ( * ) SI_UNIT ( $, .STERADIAN. ) SOLID_ANGLE_UNIT ( ) );
#20 = DIRECTION ( 'NONE',  ( 1.000000000000000000, 0.0000000000000000000, 0.0000000000000000000 ) ) ;
#21 = PRESENTATION_LAYER_ASSIGNMENT (  '', '', ( #147 ) ) ;
#22 = PRODUCT ( '690DDR800', '690DDR800', '', ( #50 ) ) ;
#23 = ADVANCED_FACE ( 'NONE', ( #126 ), #97, .T. ) ;
#24 = TOROIDAL_SURFACE ( 'NONE', #78, 418.6000000000000200, 1.000000000000002000 ) ;
#25 = AXIS2_PLACEMENT_3D ( 'NONE', #56, #143, #68 ) ;
#26 = EDGE_CURVE ( 'NONE', #77, #62, #60, .T. ) ;
#27 = ADVANCED_BREP_SHAPE_REPRESENTATION ( '690DDR800', ( #111, #109 ), #42 ) ;
#28 = CARTESIAN_POINT ( 'NONE',  ( -419.6000000000000200, 5.138617969222294800E-014, 0.0000000000000000000 ) ) ;
#29 = DIRECTION ( 'NONE',  ( 0.0000000000000000000, 0.0000000000000000000, -1.000000000000000000 ) ) ;
#30 = FACE_OUTER_BOUND ( 'NONE', #144, .T. ) ;
#31 =( NAMED_UNIT ( * ) PLANE_ANGLE_UNIT ( ) SI_UNIT ( $, .RADIAN. ) );
#32 = DIRECTION ( 'NONE',  ( -0.0000000000000000000, -0.0000000000000000000, 1.000000000000000000 ) ) ;
#33 =( NAMED_UNIT ( * ) PLANE_ANGLE_UNIT ( ) SI_UNIT ( $, .RADIAN. ) );
#34 = CARTESIAN_POINT ( 'NONE',  ( 0.0000000000000000000, 0.0000000000000000000, 0.0000000000000000000 ) ) ;
#35 = DIRECTION ( 'NONE',  ( 0.0000000000000000000, 0.0000000000000000000, 1.000000000000000000 ) ) ;
#36 = CIRCLE ( 'NONE', #99, 1.000000000000002000 ) ;
#37 = AXIS2_PLACEMENT_3D ( 'NONE', #3, #93, #17 ) ;
#38 = EDGE_CURVE ( 'NONE', #77, #1, #36, .T. ) ;
#39 = ADVANCED_FACE ( 'NONE', ( #30 ), #124, .T. ) ;
#40 = ORIENTED_EDGE ( 'NONE', *, *, #158, .T. ) ;
#41 = ORIENTED_EDGE ( 'NONE', *, *, #158, .F. ) ;
#42 =( GEOMETRIC_REPRESENTATION_CONTEXT ( 3 ) GLOBAL_UNCERTAINTY_ASSIGNED_CONTEXT ( ( #55 ) ) GLOBAL_UNIT_ASSIGNED_CONTEXT ( ( #106, #33, #119 ) ) REPRESENTATION_CONTEXT ( 'NONE', 'WORKASPACE' ) );
#43 = CIRCLE ( 'NONE', #37, 1.000000000000002000 ) ;
#44 = EDGE_CURVE ( 'NONE', #62, #81, #154, .T. ) ;
#45 = ORIENTED_EDGE ( 'NONE', *, *, #14, .T. ) ;
#46 = CARTESIAN_POINT ( 'NONE',  ( 0.0000000000000000000, 0.0000000000000000000, 0.0000000000000000000 ) ) ;
#47 = CARTESIAN_POINT ( 'NONE',  ( 0.0000000000000000000, 0.0000000000000000000, -1.224646799147355700E-016 ) ) ;
#48 = ORIENTED_EDGE ( 'NONE', *, *, #150, .F. ) ;
#49 = DIRECTION ( 'NONE',  ( 1.000000000000000000, 0.0000000000000000000, 0.0000000000000000000 ) ) ;
#50 = PRODUCT_CONTEXT ( 'NONE', #145, 'mechanical' ) ;
#51 = PRODUCT_DEFINITION_SHAPE ( 'NONE', 'NONE',  #114 ) ;
#52 = ORIENTED_EDGE ( 'NONE', *, *, #150, .T. ) ;
#53 = DIRECTION ( 'NONE',  ( -0.0000000000000000000, -0.0000000000000000000, 1.000000000000000000 ) ) ;
#54 = DIRECTION ( 'NONE',  ( -0.0000000000000000000, -0.0000000000000000000, 1.000000000000000000 ) ) ;
#55 = UNCERTAINTY_MEASURE_WITH_UNIT (LENGTH_MEASURE( 1.000000000000000100E-005 ), #106, 'distance_accuracy_value', 'NONE');
#56 = CARTESIAN_POINT ( 'NONE',  ( -418.6000000000000200, 5.126371501230821300E-014, 0.0000000000000000000 ) ) ;
#57 = APPLICATION_PROTOCOL_DEFINITION ( 'draft international standard', 'automotive_design', 1998, #132 ) ;
#58 = COLOUR_RGB ( '',0.7254901960784313500, 0.4470588235294117300, 0.3686274509803921800 ) ;
#59 = STYLED_ITEM ( 'NONE', ( #61 ), #27 ) ;
#60 = CIRCLE ( 'NONE', #80, 417.6000000000000200 ) ;
#61 = PRESENTATION_STYLE_ASSIGNMENT (( #83 ) ) ;
#62 = VERTEX_POINT ( 'NONE', #92 ) ;
#63 = AXIS2_PLACEMENT_3D ( 'NONE', #47, #4, #94 ) ;
#64 = DIRECTION ( 'NONE',  ( 1.000000000000000000, 0.0000000000000000000, 0.0000000000000000000 ) ) ;
#65 = CARTESIAN_POINT ( 'NONE',  ( 417.6000000000000200, 0.0000000000000000000, -1.224646799147356900E-016 ) ) ;
#66 = ORIENTED_EDGE ( 'NONE', *, *, #146, .F. ) ;
#67 = PRESENTATION_LAYER_ASSIGNMENT (  '', '', ( #59 ) ) ;
#68 = DIRECTION ( 'NONE',  ( -1.000000000000000000, 1.224646799147349500E-016, 0.0000000000000000000 ) ) ;
#69 = FILL_AREA_STYLE ('',( #128 ) ) ;
#70 = ORIENTED_EDGE ( 'NONE', *, *, #38, .T. ) ;
#71 = AXIS2_PLACEMENT_3D ( 'NONE', #34, #120, #49 ) ;
#72 = ORIENTED_EDGE ( 'NONE', *, *, #146, .T. ) ;
#73 = MECHANICAL_DESIGN_GEOMETRIC_PRESENTATION_REPRESENTATION (  '', ( #59 ), #84 ) ;
#74 = CIRCLE ( 'NONE', #25, 1.000000000000000900 ) ;
#75 = CARTESIAN_POINT ( 'NONE',  ( 0.0000000000000000000, 0.0000000000000000000, 0.0000000000000000000 ) ) ;
#76 = CARTESIAN_POINT ( 'NONE',  ( -418.6000000000000200, 5.126371501230821300E-014, 0.0000000000000000000 ) ) ;
#77 = VERTEX_POINT ( 'NONE', #65 ) ;
#78 = AXIS2_PLACEMENT_3D ( 'NONE', #75, #53, #141 ) ;
#79 = FILL_AREA_STYLE_COLOUR ( '', #58 ) ;
#80 = AXIS2_PLACEMENT_3D ( 'NONE', #7, #96, #20 ) ;
#81 = VERTEX_POINT ( 'NONE', #28 ) ;
#82 = CARTESIAN_POINT ( 'NONE',  ( 0.0000000000000000000, 0.0000000000000000000, 0.0000000000000000000 ) ) ;
#83 = SURFACE_STYLE_USAGE ( .BOTH. , #152 ) ;
#84 =( GEOMETRIC_REPRESENTATION_CONTEXT ( 3 ) GLOBAL_UNCERTAINTY_ASSIGNED_CONTEXT ( ( #155 ) ) GLOBAL_UNIT_ASSIGNED_CONTEXT ( ( #6, #95, #19 ) ) REPRESENTATION_CONTEXT ( 'NONE', 'WORKASPACE' ) );
#85 = ADVANCED_FACE ( 'NONE', ( #148 ), #24, .T. ) ;
#86 = UNCERTAINTY_MEASURE_WITH_UNIT (LENGTH_MEASURE( 1.000000000000000100E-005 ), #103, 'distance_accuracy_value', 'NONE');
#87 = PRESENTATION_STYLE_ASSIGNMENT (( #15 ) ) ;
#88 = EDGE_LOOP ( 'NONE', ( #48, #72, #40, #139 ) ) ;
#89 = AXIS2_PLACEMENT_3D ( 'NONE', #82, #108, #130 ) ;
#90 = SURFACE_STYLE_FILL_AREA ( #2 ) ;
#91 = SURFACE_SIDE_STYLE ('',( #90 ) ) ;
#92 = CARTESIAN_POINT ( 'NONE',  ( -417.6000000000000200, 5.114125033239347700E-014, -1.224646799147356900E-016 ) ) ;
#93 = DIRECTION ( 'NONE',  ( 0.0000000000000000000, -1.000000000000000000, 0.0000000000000000000 ) ) ;
#94 = DIRECTION ( 'NONE',  ( 1.000000000000000000, 0.0000000000000000000, 0.0000000000000000000 ) ) ;
#95 =( NAMED_UNIT ( * ) PLANE_ANGLE_UNIT ( ) SI_UNIT ( $, .RADIAN. ) );
#96 = DIRECTION ( 'NONE',  ( -0.0000000000000000000, -0.0000000000000000000, 1.000000000000000000 ) ) ;
#97 = TOROIDAL_SURFACE ( 'NONE', #89, 418.6000000000000200, 1.000000000000002000 ) ;
#98 = COLOUR_RGB ( '',0.7254901960784313500, 0.4470588235294117300, 0.3686274509803921800 ) ;
#99 = AXIS2_PLACEMENT_3D ( 'NONE', #122, #137, #29 ) ;
#100 = ORIENTED_EDGE ( 'NONE', *, *, #26, .F. ) ;
#101 = AXIS2_PLACEMENT_3D ( 'NONE', #18, #153, #64 ) ;
#102 = EDGE_LOOP ( 'NONE', ( #135, #5, #12, #10 ) ) ;
#103 =( LENGTH_UNIT ( ) NAMED_UNIT ( * ) SI_UNIT ( .MILLI., .METRE. ) );
#104 = CARTESIAN_POINT ( 'NONE',  ( 0.0000000000000000000, 0.0000000000000000000, 0.0000000000000000000 ) ) ;
#105 = AXIS2_PLACEMENT_3D ( 'NONE', #76, #138, #113 ) ;
#106 =( LENGTH_UNIT ( ) NAMED_UNIT ( * ) SI_UNIT ( .MILLI., .METRE. ) );
#107 = ORIENTED_EDGE ( 'NONE', *, *, #44, .F. ) ;
#108 = DIRECTION ( 'NONE',  ( -0.0000000000000000000, -0.0000000000000000000, 1.000000000000000000 ) ) ;
#109 = AXIS2_PLACEMENT_3D ( 'NONE', #46, #35, #121 ) ;
#110 = EDGE_LOOP ( 'NONE', ( #41, #45, #52, #100 ) ) ;
#111 = MANIFOLD_SOLID_BREP ( 'Rotation1', #16 ) ;
#112 = CIRCLE ( 'NONE', #71, 419.6000000000000200 ) ;
#113 = DIRECTION ( 'NONE',  ( -1.000000000000000000, 1.224646799147349500E-016, 0.0000000000000000000 ) ) ;
#114 = PRODUCT_DEFINITION ( 'UNKNOWN', '', #125, #115 ) ;
#115 = PRODUCT_DEFINITION_CONTEXT ( 'detailed design', #132, 'design' ) ;
#116 =( NAMED_UNIT ( * ) SI_UNIT ( $, .STERADIAN. ) SOLID_ANGLE_UNIT ( ) );
#117 = DIRECTION ( 'NONE',  ( 1.000000000000000000, 0.0000000000000000000, 0.0000000000000000000 ) ) ;
#118 = SHAPE_DEFINITION_REPRESENTATION ( #51, #27 ) ;
#119 =( NAMED_UNIT ( * ) SI_UNIT ( $, .STERADIAN. ) SOLID_ANGLE_UNIT ( ) );
#120 = DIRECTION ( 'NONE',  ( -0.0000000000000000000, -0.0000000000000000000, 1.000000000000000000 ) ) ;
#121 = DIRECTION ( 'NONE',  ( 1.000000000000000000, 0.0000000000000000000, 0.0000000000000000000 ) ) ;
#122 = CARTESIAN_POINT ( 'NONE',  ( 418.6000000000000200, 0.0000000000000000000, 0.0000000000000000000 ) ) ;
#123 = FACE_OUTER_BOUND ( 'NONE', #102, .T. ) ;
#124 = TOROIDAL_SURFACE ( 'NONE', #101, 418.6000000000000200, 1.000000000000002000 ) ;
#125 = PRODUCT_DEFINITION_FORMATION_WITH_SPECIFIED_SOURCE ( 'ANY', '', #22, .NOT_KNOWN. ) ;
#126 = FACE_OUTER_BOUND ( 'NONE', #88, .T. ) ;
#127 = CARTESIAN_POINT ( 'NONE',  ( 0.0000000000000000000, 0.0000000000000000000, 0.0000000000000000000 ) ) ;
#128 = FILL_AREA_STYLE_COLOUR ( '', #98 ) ;
#129 = APPLICATION_PROTOCOL_DEFINITION ( 'draft international standard', 'automotive_design', 1998, #145 ) ;
#130 = DIRECTION ( 'NONE',  ( 1.000000000000000000, 0.0000000000000000000, 0.0000000000000000000 ) ) ;
#131 = ORIENTED_EDGE ( 'NONE', *, *, #9, .T. ) ;
#132 = APPLICATION_CONTEXT ( 'automotive_design' ) ;
#133 = PRODUCT_RELATED_PRODUCT_CATEGORY ( 'part', '', ( #22 ) ) ;
#134 = ADVANCED_FACE ( 'NONE', ( #123 ), #11, .T. ) ;
#135 = ORIENTED_EDGE ( 'NONE', *, *, #14, .F. ) ;
#136 = SURFACE_STYLE_FILL_AREA ( #69 ) ;
#137 = DIRECTION ( 'NONE',  ( 0.0000000000000000000, -1.000000000000000000, 0.0000000000000000000 ) ) ;
#138 = DIRECTION ( 'NONE',  ( 1.224646799147353200E-016, 1.000000000000000000, 0.0000000000000000000 ) ) ;
#139 = ORIENTED_EDGE ( 'NONE', *, *, #9, .F. ) ;
#140 = CIRCLE ( 'NONE', #8, 419.6000000000000200 ) ;
#141 = DIRECTION ( 'NONE',  ( 1.000000000000000000, 0.0000000000000000000, 0.0000000000000000000 ) ) ;
#142 = DIRECTION ( 'NONE',  ( 1.000000000000000000, 0.0000000000000000000, 0.0000000000000000000 ) ) ;
#143 = DIRECTION ( 'NONE',  ( 1.224646799147353200E-016, 1.000000000000000000, 0.0000000000000000000 ) ) ;
#144 = EDGE_LOOP ( 'NONE', ( #66, #107, #131, #70 ) ) ;
#145 = APPLICATION_CONTEXT ( 'automotive_design' ) ;
#146 = EDGE_CURVE ( 'NONE', #81, #1, #140, .T. ) ;
#147 = STYLED_ITEM ( 'NONE', ( #87 ), #111 ) ;
#148 = FACE_OUTER_BOUND ( 'NONE', #110, .T. ) ;
#149 = MECHANICAL_DESIGN_GEOMETRIC_PRESENTATION_REPRESENTATION (  '', ( #147 ), #157 ) ;
#150 = EDGE_CURVE ( 'NONE', #81, #62, #74, .T. ) ;
#151 = CARTESIAN_POINT ( 'NONE',  ( 419.6000000000000200, 0.0000000000000000000, 0.0000000000000000000 ) ) ;
#152 = SURFACE_SIDE_STYLE ('',( #136 ) ) ;
#153 = DIRECTION ( 'NONE',  ( -0.0000000000000000000, -0.0000000000000000000, 1.000000000000000000 ) ) ;
#154 = CIRCLE ( 'NONE', #105, 1.000000000000000900 ) ;
#155 = UNCERTAINTY_MEASURE_WITH_UNIT (LENGTH_MEASURE( 1.000000000000000100E-005 ), #6, 'distance_accuracy_value', 'NONE');
#156 = CIRCLE ( 'NONE', #63, 417.6000000000000200 ) ;
#157 =( GEOMETRIC_REPRESENTATION_CONTEXT ( 3 ) GLOBAL_UNCERTAINTY_ASSIGNED_CONTEXT ( ( #86 ) ) GLOBAL_UNIT_ASSIGNED_CONTEXT ( ( #103, #31, #116 ) ) REPRESENTATION_CONTEXT ( 'NONE', 'WORKASPACE' ) );
#158 = EDGE_CURVE ( 'NONE', #1, #77, #43, .T. ) ;
ENDSEC;
END-ISO-10303-21;
