ISO-10303-21;
HEADER;
FILE_DESCRIPTION (( 'STEP AP214' ),
    '1' );
FILE_NAME ('102DOR016-S1.step',
    '2017-07-06T09:25:31',
    ( 'install' ),
    ( '' ),
    'SwSTEP 2.0',
    'SolidWorks 2015',
    '' );
FILE_SCHEMA (( 'AUTOMOTIVE_DESIGN' ));
ENDSEC;

DATA;
#1 = DIRECTION ( 'NONE',  ( -0.0000000000000000000, -0.0000000000000000000, 1.000000000000000000 ) ) ;
#2 = DIRECTION ( 'NONE',  ( 0.0000000000000000000, 0.0000000000000000000, -1.000000000000000000 ) ) ;
#3 = PRODUCT_DEFINITION ( 'UNKNOWN', '', #14, #37 ) ;
#4 = ORIENTED_EDGE ( 'NONE', *, *, #93, .T. ) ;
#5 = DIRECTION ( 'NONE',  ( 0.0000000000000000000, -1.000000000000000000, 0.0000000000000000000 ) ) ;
#6 = SURFACE_SIDE_STYLE ('',( #66 ) ) ;
#7 = AXIS2_PLACEMENT_3D ( 'NONE', #157, #132, #105 ) ;
#8 = EDGE_LOOP ( 'NONE', ( #76, #33, #4, #30 ) ) ;
#9 =( LENGTH_UNIT ( ) NAMED_UNIT ( * ) SI_UNIT ( .MILLI., .METRE. ) );
#10 = ORIENTED_EDGE ( 'NONE', *, *, #84, .F. ) ;
#11 = TOROIDAL_SURFACE ( 'NONE', #136, 11.50000000000000000, 2.500000000000000000 ) ;
#12 = DIRECTION ( 'NONE',  ( 1.000000000000000000, 0.0000000000000000000, 0.0000000000000000000 ) ) ;
#13 = PRESENTATION_STYLE_ASSIGNMENT (( #25 ) ) ;
#14 = PRODUCT_DEFINITION_FORMATION_WITH_SPECIFIED_SOURCE ( 'ANY', '', #144, .NOT_KNOWN. ) ;
#15 = CLOSED_SHELL ( 'NONE', ( #28, #107, #48, #74 ) ) ;
#16 = ORIENTED_EDGE ( 'NONE', *, *, #54, .F. ) ;
#17 = AXIS2_PLACEMENT_3D ( 'NONE', #50, #39, #38 ) ;
#18 = CARTESIAN_POINT ( 'NONE',  ( 0.0000000000000000000, 0.0000000000000000000, 0.0000000000000000000 ) ) ;
#19 = VERTEX_POINT ( 'NONE', #78 ) ;
#20 = VERTEX_POINT ( 'NONE', #106 ) ;
#21 = CARTESIAN_POINT ( 'NONE',  ( 0.0000000000000000000, 0.0000000000000000000, -3.061616997868383100E-016 ) ) ;
#22 = CARTESIAN_POINT ( 'NONE',  ( 0.0000000000000000000, 0.0000000000000000000, 0.0000000000000000000 ) ) ;
#23 = FILL_AREA_STYLE ('',( #49 ) ) ;
#24 = APPLICATION_CONTEXT ( 'automotive_design' ) ;
#25 = SURFACE_STYLE_USAGE ( .BOTH. , #91 ) ;
#26 = CIRCLE ( 'NONE', #158, 2.500000000000000000 ) ;
#27 = PRODUCT_RELATED_PRODUCT_CATEGORY ( 'part', '', ( #144 ) ) ;
#28 = ADVANCED_FACE ( 'NONE', ( #138 ), #34, .T. ) ;
#29 = ORIENTED_EDGE ( 'NONE', *, *, #93, .F. ) ;
#30 = ORIENTED_EDGE ( 'NONE', *, *, #68, .F. ) ;
#31 = AXIS2_PLACEMENT_3D ( 'NONE', #150, #113, #43 ) ;
#32 = ORIENTED_EDGE ( 'NONE', *, *, #84, .T. ) ;
#33 = ORIENTED_EDGE ( 'NONE', *, *, #61, .T. ) ;
#34 = TOROIDAL_SURFACE ( 'NONE', #126, 11.50000000000000000, 2.500000000000000000 ) ;
#35 = APPLICATION_PROTOCOL_DEFINITION ( 'draft international standard', 'automotive_design', 1998, #24 ) ;
#36 = AXIS2_PLACEMENT_3D ( 'NONE', #46, #5, #2 ) ;
#37 = PRODUCT_DEFINITION_CONTEXT ( 'detailed design', #129, 'design' ) ;
#38 = DIRECTION ( 'NONE',  ( -1.000000000000000000, 1.224646799147353500E-016, 0.0000000000000000000 ) ) ;
#39 = DIRECTION ( 'NONE',  ( 1.224646799147353200E-016, 1.000000000000000000, 0.0000000000000000000 ) ) ;
#40 = UNCERTAINTY_MEASURE_WITH_UNIT (LENGTH_MEASURE( 1.000000000000000100E-005 ), #114, 'distance_accuracy_value', 'NONE');
#41 = DIRECTION ( 'NONE',  ( 0.0000000000000000000, 0.0000000000000000000, 1.000000000000000000 ) ) ;
#42 = CIRCLE ( 'NONE', #31, 2.500000000000000400 ) ;
#43 = DIRECTION ( 'NONE',  ( -1.000000000000000000, 1.224646799147353500E-016, 0.0000000000000000000 ) ) ;
#44 = AXIS2_PLACEMENT_3D ( 'NONE', #130, #87, #47 ) ;
#45 = CIRCLE ( 'NONE', #36, 2.500000000000000000 ) ;
#46 = CARTESIAN_POINT ( 'NONE',  ( 11.50000000000000000, 0.0000000000000000000, 0.0000000000000000000 ) ) ;
#47 = DIRECTION ( 'NONE',  ( 1.000000000000000000, 0.0000000000000000000, 0.0000000000000000000 ) ) ;
#48 = ADVANCED_FACE ( 'NONE', ( #63 ), #11, .T. ) ;
#49 = FILL_AREA_STYLE_COLOUR ( '', #122 ) ;
#50 = CARTESIAN_POINT ( 'NONE',  ( -11.50000000000000000, 1.408343819019456200E-015, 0.0000000000000000000 ) ) ;
#51 = CARTESIAN_POINT ( 'NONE',  ( 9.000000000000000000, 0.0000000000000000000, -3.061616997868382600E-016 ) ) ;
#52 = STYLED_ITEM ( 'NONE', ( #13 ), #152 ) ;
#53 = ORIENTED_EDGE ( 'NONE', *, *, #104, .T. ) ;
#54 = EDGE_CURVE ( 'NONE', #154, #99, #108, .T. ) ;
#55 = EDGE_LOOP ( 'NONE', ( #151, #73, #77, #32 ) ) ;
#56 =( NAMED_UNIT ( * ) PLANE_ANGLE_UNIT ( ) SI_UNIT ( $, .RADIAN. ) );
#57 = ORIENTED_EDGE ( 'NONE', *, *, #75, .T. ) ;
#58 =( LENGTH_UNIT ( ) NAMED_UNIT ( * ) SI_UNIT ( .MILLI., .METRE. ) );
#59 = AXIS2_PLACEMENT_3D ( 'NONE', #18, #117, #90 ) ;
#60 = ORIENTED_EDGE ( 'NONE', *, *, #104, .F. ) ;
#61 = EDGE_CURVE ( 'NONE', #19, #20, #103, .T. ) ;
#62 = DIRECTION ( 'NONE',  ( 0.0000000000000000000, 0.0000000000000000000, -1.000000000000000000 ) ) ;
#63 = FACE_OUTER_BOUND ( 'NONE', #55, .T. ) ;
#64 = DIRECTION ( 'NONE',  ( -0.0000000000000000000, -0.0000000000000000000, 1.000000000000000000 ) ) ;
#65 = PRESENTATION_LAYER_ASSIGNMENT (  '', '', ( #52 ) ) ;
#66 = SURFACE_STYLE_FILL_AREA ( #23 ) ;
#67 = DIRECTION ( 'NONE',  ( 1.000000000000000000, 0.0000000000000000000, 0.0000000000000000000 ) ) ;
#68 = EDGE_CURVE ( 'NONE', #99, #154, #124, .T. ) ;
#69 = ORIENTED_EDGE ( 'NONE', *, *, #97, .T. ) ;
#70 = DIRECTION ( 'NONE',  ( 0.0000000000000000000, -1.000000000000000000, 0.0000000000000000000 ) ) ;
#71 = CARTESIAN_POINT ( 'NONE',  ( 11.50000000000000000, 0.0000000000000000000, 0.0000000000000000000 ) ) ;
#72 = MECHANICAL_DESIGN_GEOMETRIC_PRESENTATION_REPRESENTATION (  '', ( #52 ), #81 ) ;
#73 = ORIENTED_EDGE ( 'NONE', *, *, #75, .F. ) ;
#74 = ADVANCED_FACE ( 'NONE', ( #128 ), #111, .T. ) ;
#75 = EDGE_CURVE ( 'NONE', #99, #19, #26, .T. ) ;
#76 = ORIENTED_EDGE ( 'NONE', *, *, #97, .F. ) ;
#77 = ORIENTED_EDGE ( 'NONE', *, *, #68, .T. ) ;
#78 = CARTESIAN_POINT ( 'NONE',  ( 14.00000000000000000, 0.0000000000000000000, 0.0000000000000000000 ) ) ;
#79 =( NAMED_UNIT ( * ) PLANE_ANGLE_UNIT ( ) SI_UNIT ( $, .RADIAN. ) );
#80 = COLOUR_RGB ( '',0.3843137254901960500, 0.3843137254901960500, 0.3843137254901960500 ) ;
#81 =( GEOMETRIC_REPRESENTATION_CONTEXT ( 3 ) GLOBAL_UNCERTAINTY_ASSIGNED_CONTEXT ( ( #127 ) ) GLOBAL_UNIT_ASSIGNED_CONTEXT ( ( #58, #155, #141 ) ) REPRESENTATION_CONTEXT ( 'NONE', 'WORKASPACE' ) );
#82 =( NAMED_UNIT ( * ) SI_UNIT ( $, .STERADIAN. ) SOLID_ANGLE_UNIT ( ) );
#83 = FACE_OUTER_BOUND ( 'NONE', #8, .T. ) ;
#84 = EDGE_CURVE ( 'NONE', #154, #20, #89, .T. ) ;
#85 = EDGE_LOOP ( 'NONE', ( #29, #53, #69, #16 ) ) ;
#86 = SHAPE_DEFINITION_REPRESENTATION ( #100, #139 ) ;
#87 = DIRECTION ( 'NONE',  ( -0.0000000000000000000, -0.0000000000000000000, 1.000000000000000000 ) ) ;
#88 =( GEOMETRIC_REPRESENTATION_CONTEXT ( 3 ) GLOBAL_UNCERTAINTY_ASSIGNED_CONTEXT ( ( #40 ) ) GLOBAL_UNIT_ASSIGNED_CONTEXT ( ( #114, #79, #101 ) ) REPRESENTATION_CONTEXT ( 'NONE', 'WORKASPACE' ) );
#89 = CIRCLE ( 'NONE', #17, 2.500000000000000400 ) ;
#90 = DIRECTION ( 'NONE',  ( 1.000000000000000000, 0.0000000000000000000, 0.0000000000000000000 ) ) ;
#91 = SURFACE_SIDE_STYLE ('',( #145 ) ) ;
#92 = UNCERTAINTY_MEASURE_WITH_UNIT (LENGTH_MEASURE( 1.000000000000000100E-005 ), #9, 'distance_accuracy_value', 'NONE');
#93 = EDGE_CURVE ( 'NONE', #20, #154, #42, .T. ) ;
#94 = FILL_AREA_STYLE_COLOUR ( '', #80 ) ;
#95 = EDGE_LOOP ( 'NONE', ( #60, #10, #148, #57 ) ) ;
#96 = CARTESIAN_POINT ( 'NONE',  ( -9.000000000000000000, 1.102182119232617700E-015, -3.061616997868382600E-016 ) ) ;
#97 = EDGE_CURVE ( 'NONE', #19, #99, #45, .T. ) ;
#98 = DIRECTION ( 'NONE',  ( 1.000000000000000000, 0.0000000000000000000, 0.0000000000000000000 ) ) ;
#99 = VERTEX_POINT ( 'NONE', #51 ) ;
#100 = PRODUCT_DEFINITION_SHAPE ( 'NONE', 'NONE',  #3 ) ;
#101 =( NAMED_UNIT ( * ) SI_UNIT ( $, .STERADIAN. ) SOLID_ANGLE_UNIT ( ) );
#102 = STYLED_ITEM ( 'NONE', ( #125 ), #139 ) ;
#103 = CIRCLE ( 'NONE', #143, 14.00000000000000000 ) ;
#104 = EDGE_CURVE ( 'NONE', #20, #19, #146, .T. ) ;
#105 = DIRECTION ( 'NONE',  ( 1.000000000000000000, 0.0000000000000000000, 0.0000000000000000000 ) ) ;
#106 = CARTESIAN_POINT ( 'NONE',  ( -14.00000000000000000, 1.714505518806294600E-015, 0.0000000000000000000 ) ) ;
#107 = ADVANCED_FACE ( 'NONE', ( #83 ), #140, .T. ) ;
#108 = CIRCLE ( 'NONE', #116, 9.000000000000000000 ) ;
#109 = PRESENTATION_LAYER_ASSIGNMENT (  '', '', ( #102 ) ) ;
#110 = CARTESIAN_POINT ( 'NONE',  ( 0.0000000000000000000, 0.0000000000000000000, 0.0000000000000000000 ) ) ;
#111 = TOROIDAL_SURFACE ( 'NONE', #7, 11.50000000000000000, 2.500000000000000000 ) ;
#112 = PRODUCT_CONTEXT ( 'NONE', #24, 'mechanical' ) ;
#113 = DIRECTION ( 'NONE',  ( 1.224646799147353200E-016, 1.000000000000000000, 0.0000000000000000000 ) ) ;
#114 =( LENGTH_UNIT ( ) NAMED_UNIT ( * ) SI_UNIT ( .MILLI., .METRE. ) );
#115 = CARTESIAN_POINT ( 'NONE',  ( 0.0000000000000000000, 0.0000000000000000000, 0.0000000000000000000 ) ) ;
#116 = AXIS2_PLACEMENT_3D ( 'NONE', #21, #1, #137 ) ;
#117 = DIRECTION ( 'NONE',  ( -0.0000000000000000000, -0.0000000000000000000, 1.000000000000000000 ) ) ;
#118 = SURFACE_STYLE_USAGE ( .BOTH. , #6 ) ;
#119 = DIRECTION ( 'NONE',  ( -0.0000000000000000000, -0.0000000000000000000, 1.000000000000000000 ) ) ;
#120 = CARTESIAN_POINT ( 'NONE',  ( 0.0000000000000000000, 0.0000000000000000000, 0.0000000000000000000 ) ) ;
#121 = MECHANICAL_DESIGN_GEOMETRIC_PRESENTATION_REPRESENTATION (  '', ( #102 ), #131 ) ;
#122 = COLOUR_RGB ( '',0.3843137254901960500, 0.3843137254901960500, 0.3843137254901960500 ) ;
#123 = DIRECTION ( 'NONE',  ( 1.000000000000000000, 0.0000000000000000000, 0.0000000000000000000 ) ) ;
#124 = CIRCLE ( 'NONE', #149, 9.000000000000000000 ) ;
#125 = PRESENTATION_STYLE_ASSIGNMENT (( #118 ) ) ;
#126 = AXIS2_PLACEMENT_3D ( 'NONE', #22, #64, #98 ) ;
#127 = UNCERTAINTY_MEASURE_WITH_UNIT (LENGTH_MEASURE( 1.000000000000000100E-005 ), #58, 'distance_accuracy_value', 'NONE');
#128 = FACE_OUTER_BOUND ( 'NONE', #95, .T. ) ;
#129 = APPLICATION_CONTEXT ( 'automotive_design' ) ;
#130 = CARTESIAN_POINT ( 'NONE',  ( 0.0000000000000000000, 0.0000000000000000000, 0.0000000000000000000 ) ) ;
#131 =( GEOMETRIC_REPRESENTATION_CONTEXT ( 3 ) GLOBAL_UNCERTAINTY_ASSIGNED_CONTEXT ( ( #92 ) ) GLOBAL_UNIT_ASSIGNED_CONTEXT ( ( #9, #56, #82 ) ) REPRESENTATION_CONTEXT ( 'NONE', 'WORKASPACE' ) );
#132 = DIRECTION ( 'NONE',  ( -0.0000000000000000000, -0.0000000000000000000, 1.000000000000000000 ) ) ;
#133 = FILL_AREA_STYLE ('',( #94 ) ) ;
#134 = DIRECTION ( 'NONE',  ( 1.000000000000000000, 0.0000000000000000000, 0.0000000000000000000 ) ) ;
#135 = DIRECTION ( 'NONE',  ( -0.0000000000000000000, -0.0000000000000000000, 1.000000000000000000 ) ) ;
#136 = AXIS2_PLACEMENT_3D ( 'NONE', #110, #142, #123 ) ;
#137 = DIRECTION ( 'NONE',  ( 1.000000000000000000, 0.0000000000000000000, 0.0000000000000000000 ) ) ;
#138 = FACE_OUTER_BOUND ( 'NONE', #85, .T. ) ;
#139 = ADVANCED_BREP_SHAPE_REPRESENTATION ( '102DOR016-S1', ( #152, #153 ), #88 ) ;
#140 = TOROIDAL_SURFACE ( 'NONE', #59, 11.50000000000000000, 2.500000000000000000 ) ;
#141 =( NAMED_UNIT ( * ) SI_UNIT ( $, .STERADIAN. ) SOLID_ANGLE_UNIT ( ) );
#142 = DIRECTION ( 'NONE',  ( -0.0000000000000000000, -0.0000000000000000000, 1.000000000000000000 ) ) ;
#143 = AXIS2_PLACEMENT_3D ( 'NONE', #120, #119, #12 ) ;
#144 = PRODUCT ( '102DOR016-S1', '102DOR016-S1', '', ( #112 ) ) ;
#145 = SURFACE_STYLE_FILL_AREA ( #133 ) ;
#146 = CIRCLE ( 'NONE', #44, 14.00000000000000000 ) ;
#147 = APPLICATION_PROTOCOL_DEFINITION ( 'draft international standard', 'automotive_design', 1998, #129 ) ;
#148 = ORIENTED_EDGE ( 'NONE', *, *, #54, .T. ) ;
#149 = AXIS2_PLACEMENT_3D ( 'NONE', #156, #135, #134 ) ;
#150 = CARTESIAN_POINT ( 'NONE',  ( -11.50000000000000000, 1.408343819019456200E-015, 0.0000000000000000000 ) ) ;
#151 = ORIENTED_EDGE ( 'NONE', *, *, #61, .F. ) ;
#152 = MANIFOLD_SOLID_BREP ( 'Rotation1', #15 ) ;
#153 = AXIS2_PLACEMENT_3D ( 'NONE', #115, #41, #67 ) ;
#154 = VERTEX_POINT ( 'NONE', #96 ) ;
#155 =( NAMED_UNIT ( * ) PLANE_ANGLE_UNIT ( ) SI_UNIT ( $, .RADIAN. ) );
#156 = CARTESIAN_POINT ( 'NONE',  ( 0.0000000000000000000, 0.0000000000000000000, -3.061616997868383100E-016 ) ) ;
#157 = CARTESIAN_POINT ( 'NONE',  ( 0.0000000000000000000, 0.0000000000000000000, 0.0000000000000000000 ) ) ;
#158 = AXIS2_PLACEMENT_3D ( 'NONE', #71, #70, #62 ) ;
ENDSEC;
END-ISO-10303-21;
