ISO-10303-21;
HEADER;
FILE_DESCRIPTION (( 'STEP AP214' ),
    '1' );
FILE_NAME ('102DOR010-S1.step',
    '2017-07-06T09:25:33',
    ( 'install' ),
    ( '' ),
    'SwSTEP 2.0',
    'SolidWorks 2015',
    '' );
FILE_SCHEMA (( 'AUTOMOTIVE_DESIGN' ));
ENDSEC;

DATA;
#1 = ORIENTED_EDGE ( 'NONE', *, *, #49, .T. ) ;
#2 = DIRECTION ( 'NONE',  ( -0.0000000000000000000, -0.0000000000000000000, 1.000000000000000000 ) ) ;
#3 = STYLED_ITEM ( 'NONE', ( #143 ), #154 ) ;
#4 = CARTESIAN_POINT ( 'NONE',  ( 0.0000000000000000000, 0.0000000000000000000, -3.061616997868383100E-016 ) ) ;
#5 =( LENGTH_UNIT ( ) NAMED_UNIT ( * ) SI_UNIT ( .MILLI., .METRE. ) );
#6 =( NAMED_UNIT ( * ) SI_UNIT ( $, .STERADIAN. ) SOLID_ANGLE_UNIT ( ) );
#7 = CLOSED_SHELL ( 'NONE', ( #47, #113, #117, #87 ) ) ;
#8 = FILL_AREA_STYLE_COLOUR ( '', #114 ) ;
#9 = PRODUCT ( '102DOR010-S1', '102DOR010-S1', '', ( #129 ) ) ;
#10 = APPLICATION_CONTEXT ( 'automotive_design' ) ;
#11 = PRESENTATION_LAYER_ASSIGNMENT (  '', '', ( #3 ) ) ;
#12 = CIRCLE ( 'NONE', #127, 7.500000000000000000 ) ;
#13 = DIRECTION ( 'NONE',  ( 1.000000000000000000, 0.0000000000000000000, 0.0000000000000000000 ) ) ;
#14 =( NAMED_UNIT ( * ) PLANE_ANGLE_UNIT ( ) SI_UNIT ( $, .RADIAN. ) );
#15 = CARTESIAN_POINT ( 'NONE',  ( 7.500000000000000000, 0.0000000000000000000, -3.061616997868382600E-016 ) ) ;
#16 = EDGE_LOOP ( 'NONE', ( #134, #116, #23, #50 ) ) ;
#17 = CIRCLE ( 'NONE', #69, 2.500000000000000400 ) ;
#18 =( LENGTH_UNIT ( ) NAMED_UNIT ( * ) SI_UNIT ( .MILLI., .METRE. ) );
#19 = DIRECTION ( 'NONE',  ( 0.0000000000000000000, -1.000000000000000000, 0.0000000000000000000 ) ) ;
#20 = EDGE_CURVE ( 'NONE', #26, #140, #48, .T. ) ;
#21 = MECHANICAL_DESIGN_GEOMETRIC_PRESENTATION_REPRESENTATION (  '', ( #3 ), #25 ) ;
#22 = ORIENTED_EDGE ( 'NONE', *, *, #41, .F. ) ;
#23 = ORIENTED_EDGE ( 'NONE', *, *, #147, .T. ) ;
#24 = CARTESIAN_POINT ( 'NONE',  ( -12.50000000000000000, 1.530808498934191500E-015, 0.0000000000000000000 ) ) ;
#25 =( GEOMETRIC_REPRESENTATION_CONTEXT ( 3 ) GLOBAL_UNCERTAINTY_ASSIGNED_CONTEXT ( ( #95 ) ) GLOBAL_UNIT_ASSIGNED_CONTEXT ( ( #136, #70, #60 ) ) REPRESENTATION_CONTEXT ( 'NONE', 'WORKASPACE' ) );
#26 = VERTEX_POINT ( 'NONE', #66 ) ;
#27 = SURFACE_STYLE_USAGE ( .BOTH. , #73 ) ;
#28 = CARTESIAN_POINT ( 'NONE',  ( 0.0000000000000000000, 0.0000000000000000000, 0.0000000000000000000 ) ) ;
#29 = EDGE_CURVE ( 'NONE', #140, #26, #17, .T. ) ;
#30 = TOROIDAL_SURFACE ( 'NONE', #157, 10.00000000000000000, 2.500000000000000000 ) ;
#31 = FACE_OUTER_BOUND ( 'NONE', #92, .T. ) ;
#32 =( GEOMETRIC_REPRESENTATION_CONTEXT ( 3 ) GLOBAL_UNCERTAINTY_ASSIGNED_CONTEXT ( ( #65 ) ) GLOBAL_UNIT_ASSIGNED_CONTEXT ( ( #5, #151, #153 ) ) REPRESENTATION_CONTEXT ( 'NONE', 'WORKASPACE' ) );
#33 = ADVANCED_BREP_SHAPE_REPRESENTATION ( '102DOR010-S1', ( #154, #90 ), #32 ) ;
#34 = EDGE_CURVE ( 'NONE', #128, #97, #88, .T. ) ;
#35 = DIRECTION ( 'NONE',  ( 0.0000000000000000000, 0.0000000000000000000, -1.000000000000000000 ) ) ;
#36 = EDGE_CURVE ( 'NONE', #97, #140, #139, .T. ) ;
#37 = SURFACE_SIDE_STYLE ('',( #146 ) ) ;
#38 = FILL_AREA_STYLE_COLOUR ( '', #107 ) ;
#39 = APPLICATION_PROTOCOL_DEFINITION ( 'draft international standard', 'automotive_design', 1998, #158 ) ;
#40 = EDGE_LOOP ( 'NONE', ( #93, #1, #112, #102 ) ) ;
#41 = EDGE_CURVE ( 'NONE', #97, #128, #43, .T. ) ;
#42 = STYLED_ITEM ( 'NONE', ( #148 ), #33 ) ;
#43 = CIRCLE ( 'NONE', #85, 2.500000000000000000 ) ;
#44 = DIRECTION ( 'NONE',  ( 1.224646799147353200E-016, 1.000000000000000000, 0.0000000000000000000 ) ) ;
#45 = PRODUCT_DEFINITION_CONTEXT ( 'detailed design', #158, 'design' ) ;
#46 = DIRECTION ( 'NONE',  ( 1.000000000000000000, 0.0000000000000000000, 0.0000000000000000000 ) ) ;
#47 = ADVANCED_FACE ( 'NONE', ( #81 ), #55, .T. ) ;
#48 = CIRCLE ( 'NONE', #56, 2.500000000000000400 ) ;
#49 = EDGE_CURVE ( 'NONE', #140, #97, #83, .T. ) ;
#50 = ORIENTED_EDGE ( 'NONE', *, *, #34, .T. ) ;
#51 = CIRCLE ( 'NONE', #115, 7.500000000000000000 ) ;
#52 = PRESENTATION_LAYER_ASSIGNMENT (  '', '', ( #42 ) ) ;
#53 = TOROIDAL_SURFACE ( 'NONE', #144, 10.00000000000000000, 2.500000000000000000 ) ;
#54 = UNCERTAINTY_MEASURE_WITH_UNIT (LENGTH_MEASURE( 1.000000000000000100E-005 ), #18, 'distance_accuracy_value', 'NONE');
#55 = TOROIDAL_SURFACE ( 'NONE', #103, 10.00000000000000000, 2.500000000000000000 ) ;
#56 = AXIS2_PLACEMENT_3D ( 'NONE', #71, #44, #61 ) ;
#57 = CARTESIAN_POINT ( 'NONE',  ( 0.0000000000000000000, 0.0000000000000000000, 0.0000000000000000000 ) ) ;
#58 = DIRECTION ( 'NONE',  ( 0.0000000000000000000, 0.0000000000000000000, 1.000000000000000000 ) ) ;
#59 = CARTESIAN_POINT ( 'NONE',  ( 10.00000000000000000, 0.0000000000000000000, 0.0000000000000000000 ) ) ;
#60 =( NAMED_UNIT ( * ) SI_UNIT ( $, .STERADIAN. ) SOLID_ANGLE_UNIT ( ) );
#61 = DIRECTION ( 'NONE',  ( -1.000000000000000000, 1.224646799147353500E-016, 0.0000000000000000000 ) ) ;
#62 = DIRECTION ( 'NONE',  ( -0.0000000000000000000, -0.0000000000000000000, 1.000000000000000000 ) ) ;
#63 = FACE_OUTER_BOUND ( 'NONE', #100, .T. ) ;
#64 = CARTESIAN_POINT ( 'NONE',  ( -10.00000000000000000, 1.224646799147353300E-015, 0.0000000000000000000 ) ) ;
#65 = UNCERTAINTY_MEASURE_WITH_UNIT (LENGTH_MEASURE( 1.000000000000000100E-005 ), #5, 'distance_accuracy_value', 'NONE');
#66 = CARTESIAN_POINT ( 'NONE',  ( -7.500000000000000000, 9.184850993605147900E-016, -3.061616997868382600E-016 ) ) ;
#67 = MECHANICAL_DESIGN_GEOMETRIC_PRESENTATION_REPRESENTATION (  '', ( #42 ), #72 ) ;
#68 = ORIENTED_EDGE ( 'NONE', *, *, #20, .T. ) ;
#69 = AXIS2_PLACEMENT_3D ( 'NONE', #64, #149, #110 ) ;
#70 =( NAMED_UNIT ( * ) PLANE_ANGLE_UNIT ( ) SI_UNIT ( $, .RADIAN. ) );
#71 = CARTESIAN_POINT ( 'NONE',  ( -10.00000000000000000, 1.224646799147353300E-015, 0.0000000000000000000 ) ) ;
#72 =( GEOMETRIC_REPRESENTATION_CONTEXT ( 3 ) GLOBAL_UNCERTAINTY_ASSIGNED_CONTEXT ( ( #54 ) ) GLOBAL_UNIT_ASSIGNED_CONTEXT ( ( #18, #14, #6 ) ) REPRESENTATION_CONTEXT ( 'NONE', 'WORKASPACE' ) );
#73 = SURFACE_SIDE_STYLE ('',( #86 ) ) ;
#74 = CARTESIAN_POINT ( 'NONE',  ( 0.0000000000000000000, 0.0000000000000000000, 0.0000000000000000000 ) ) ;
#75 = AXIS2_PLACEMENT_3D ( 'NONE', #59, #19, #35 ) ;
#76 = FILL_AREA_STYLE ('',( #8 ) ) ;
#77 = AXIS2_PLACEMENT_3D ( 'NONE', #28, #152, #46 ) ;
#78 = DIRECTION ( 'NONE',  ( 0.0000000000000000000, -1.000000000000000000, 0.0000000000000000000 ) ) ;
#79 = DIRECTION ( 'NONE',  ( 0.0000000000000000000, 0.0000000000000000000, -1.000000000000000000 ) ) ;
#80 = DIRECTION ( 'NONE',  ( 1.000000000000000000, 0.0000000000000000000, 0.0000000000000000000 ) ) ;
#81 = FACE_OUTER_BOUND ( 'NONE', #40, .T. ) ;
#82 = EDGE_CURVE ( 'NONE', #128, #26, #51, .T. ) ;
#83 = CIRCLE ( 'NONE', #96, 12.50000000000000000 ) ;
#84 = ORIENTED_EDGE ( 'NONE', *, *, #36, .F. ) ;
#85 = AXIS2_PLACEMENT_3D ( 'NONE', #105, #78, #79 ) ;
#86 = SURFACE_STYLE_FILL_AREA ( #76 ) ;
#87 = ADVANCED_FACE ( 'NONE', ( #123 ), #145, .T. ) ;
#88 = CIRCLE ( 'NONE', #75, 2.500000000000000000 ) ;
#89 = CARTESIAN_POINT ( 'NONE',  ( 0.0000000000000000000, 0.0000000000000000000, 0.0000000000000000000 ) ) ;
#90 = AXIS2_PLACEMENT_3D ( 'NONE', #104, #58, #99 ) ;
#91 = CARTESIAN_POINT ( 'NONE',  ( 0.0000000000000000000, 0.0000000000000000000, 0.0000000000000000000 ) ) ;
#92 = EDGE_LOOP ( 'NONE', ( #22, #130, #119, #150 ) ) ;
#93 = ORIENTED_EDGE ( 'NONE', *, *, #29, .F. ) ;
#94 = DIRECTION ( 'NONE',  ( 1.000000000000000000, 0.0000000000000000000, 0.0000000000000000000 ) ) ;
#95 = UNCERTAINTY_MEASURE_WITH_UNIT (LENGTH_MEASURE( 1.000000000000000100E-005 ), #136, 'distance_accuracy_value', 'NONE');
#96 = AXIS2_PLACEMENT_3D ( 'NONE', #106, #120, #125 ) ;
#97 = VERTEX_POINT ( 'NONE', #155 ) ;
#98 = SHAPE_DEFINITION_REPRESENTATION ( #126, #33 ) ;
#99 = DIRECTION ( 'NONE',  ( 1.000000000000000000, 0.0000000000000000000, 0.0000000000000000000 ) ) ;
#100 = EDGE_LOOP ( 'NONE', ( #84, #124, #131, #68 ) ) ;
#101 = PRODUCT_DEFINITION ( 'UNKNOWN', '', #111, #45 ) ;
#102 = ORIENTED_EDGE ( 'NONE', *, *, #147, .F. ) ;
#103 = AXIS2_PLACEMENT_3D ( 'NONE', #57, #62, #80 ) ;
#104 = CARTESIAN_POINT ( 'NONE',  ( 0.0000000000000000000, 0.0000000000000000000, 0.0000000000000000000 ) ) ;
#105 = CARTESIAN_POINT ( 'NONE',  ( 10.00000000000000000, 0.0000000000000000000, 0.0000000000000000000 ) ) ;
#106 = CARTESIAN_POINT ( 'NONE',  ( 0.0000000000000000000, 0.0000000000000000000, 0.0000000000000000000 ) ) ;
#107 = COLOUR_RGB ( '',0.3843137254901960500, 0.3843137254901960500, 0.3843137254901960500 ) ;
#108 = DIRECTION ( 'NONE',  ( 1.000000000000000000, 0.0000000000000000000, 0.0000000000000000000 ) ) ;
#109 = SURFACE_STYLE_USAGE ( .BOTH. , #37 ) ;
#110 = DIRECTION ( 'NONE',  ( -1.000000000000000000, 1.224646799147353500E-016, 0.0000000000000000000 ) ) ;
#111 = PRODUCT_DEFINITION_FORMATION_WITH_SPECIFIED_SOURCE ( 'ANY', '', #9, .NOT_KNOWN. ) ;
#112 = ORIENTED_EDGE ( 'NONE', *, *, #41, .T. ) ;
#113 = ADVANCED_FACE ( 'NONE', ( #31 ), #53, .T. ) ;
#114 = COLOUR_RGB ( '',0.3843137254901960500, 0.3843137254901960500, 0.3843137254901960500 ) ;
#115 = AXIS2_PLACEMENT_3D ( 'NONE', #137, #138, #142 ) ;
#116 = ORIENTED_EDGE ( 'NONE', *, *, #20, .F. ) ;
#117 = ADVANCED_FACE ( 'NONE', ( #63 ), #30, .T. ) ;
#118 = DIRECTION ( 'NONE',  ( -0.0000000000000000000, -0.0000000000000000000, 1.000000000000000000 ) ) ;
#119 = ORIENTED_EDGE ( 'NONE', *, *, #29, .T. ) ;
#120 = DIRECTION ( 'NONE',  ( -0.0000000000000000000, -0.0000000000000000000, 1.000000000000000000 ) ) ;
#121 = PRODUCT_RELATED_PRODUCT_CATEGORY ( 'part', '', ( #9 ) ) ;
#122 = DIRECTION ( 'NONE',  ( -0.0000000000000000000, -0.0000000000000000000, 1.000000000000000000 ) ) ;
#123 = FACE_OUTER_BOUND ( 'NONE', #16, .T. ) ;
#124 = ORIENTED_EDGE ( 'NONE', *, *, #34, .F. ) ;
#125 = DIRECTION ( 'NONE',  ( 1.000000000000000000, 0.0000000000000000000, 0.0000000000000000000 ) ) ;
#126 = PRODUCT_DEFINITION_SHAPE ( 'NONE', 'NONE',  #101 ) ;
#127 = AXIS2_PLACEMENT_3D ( 'NONE', #4, #2, #13 ) ;
#128 = VERTEX_POINT ( 'NONE', #15 ) ;
#129 = PRODUCT_CONTEXT ( 'NONE', #10, 'mechanical' ) ;
#130 = ORIENTED_EDGE ( 'NONE', *, *, #36, .T. ) ;
#131 = ORIENTED_EDGE ( 'NONE', *, *, #82, .T. ) ;
#132 = DIRECTION ( 'NONE',  ( 1.000000000000000000, 0.0000000000000000000, 0.0000000000000000000 ) ) ;
#133 = AXIS2_PLACEMENT_3D ( 'NONE', #91, #135, #94 ) ;
#134 = ORIENTED_EDGE ( 'NONE', *, *, #49, .F. ) ;
#135 = DIRECTION ( 'NONE',  ( -0.0000000000000000000, -0.0000000000000000000, 1.000000000000000000 ) ) ;
#136 =( LENGTH_UNIT ( ) NAMED_UNIT ( * ) SI_UNIT ( .MILLI., .METRE. ) );
#137 = CARTESIAN_POINT ( 'NONE',  ( 0.0000000000000000000, 0.0000000000000000000, -3.061616997868383100E-016 ) ) ;
#138 = DIRECTION ( 'NONE',  ( -0.0000000000000000000, -0.0000000000000000000, 1.000000000000000000 ) ) ;
#139 = CIRCLE ( 'NONE', #77, 12.50000000000000000 ) ;
#140 = VERTEX_POINT ( 'NONE', #24 ) ;
#141 = FILL_AREA_STYLE ('',( #38 ) ) ;
#142 = DIRECTION ( 'NONE',  ( 1.000000000000000000, 0.0000000000000000000, 0.0000000000000000000 ) ) ;
#143 = PRESENTATION_STYLE_ASSIGNMENT (( #109 ) ) ;
#144 = AXIS2_PLACEMENT_3D ( 'NONE', #89, #122, #108 ) ;
#145 = TOROIDAL_SURFACE ( 'NONE', #133, 10.00000000000000000, 2.500000000000000000 ) ;
#146 = SURFACE_STYLE_FILL_AREA ( #141 ) ;
#147 = EDGE_CURVE ( 'NONE', #26, #128, #12, .T. ) ;
#148 = PRESENTATION_STYLE_ASSIGNMENT (( #27 ) ) ;
#149 = DIRECTION ( 'NONE',  ( 1.224646799147353200E-016, 1.000000000000000000, 0.0000000000000000000 ) ) ;
#150 = ORIENTED_EDGE ( 'NONE', *, *, #82, .F. ) ;
#151 =( NAMED_UNIT ( * ) PLANE_ANGLE_UNIT ( ) SI_UNIT ( $, .RADIAN. ) );
#152 = DIRECTION ( 'NONE',  ( -0.0000000000000000000, -0.0000000000000000000, 1.000000000000000000 ) ) ;
#153 =( NAMED_UNIT ( * ) SI_UNIT ( $, .STERADIAN. ) SOLID_ANGLE_UNIT ( ) );
#154 = MANIFOLD_SOLID_BREP ( 'Rotation1', #7 ) ;
#155 = CARTESIAN_POINT ( 'NONE',  ( 12.50000000000000000, 0.0000000000000000000, 0.0000000000000000000 ) ) ;
#156 = APPLICATION_PROTOCOL_DEFINITION ( 'draft international standard', 'automotive_design', 1998, #10 ) ;
#157 = AXIS2_PLACEMENT_3D ( 'NONE', #74, #118, #132 ) ;
#158 = APPLICATION_CONTEXT ( 'automotive_design' ) ;
ENDSEC;
END-ISO-10303-21;
