ISO-10303-21;
HEADER;
FILE_DESCRIPTION (( 'STEP AP214' ),
    '1' );
FILE_NAME ('490DFL063-G-S5.stp',
    '2017-10-11T10:11:28',
    ( '' ),
    ( '' ),
    'SwSTEP 2.0',
    'SolidWorks 2015',
    '' );
FILE_SCHEMA (( 'AUTOMOTIVE_DESIGN' ));
ENDSEC;

DATA;
#1 = EDGE_CURVE ( 'NONE', #118, #98, #165, .T. ) ;
#2 = CARTESIAN_POINT ( 'NONE',  ( -31.69999999999999900, 3.882130353297110200E-015, -2.000000000000000000 ) ) ;
#3 = SURFACE_STYLE_FILL_AREA ( #202 ) ;
#4 = DIRECTION ( 'NONE',  ( 1.000000000000000000, 0.0000000000000000000, 0.0000000000000000000 ) ) ;
#5 = ORIENTED_EDGE ( 'NONE', *, *, #198, .F. ) ;
#6 = DIRECTION ( 'NONE',  ( 0.0000000000000000000, 0.0000000000000000000, 1.000000000000000000 ) ) ;
#7 = FACE_BOUND ( 'NONE', #159, .T. ) ;
#8 = STYLED_ITEM ( 'NONE', ( #47 ), #126 ) ;
#9 = EDGE_CURVE ( 'NONE', #182, #212, #40, .T. ) ;
#10 = CARTESIAN_POINT ( 'NONE',  ( 31.69999999999999900, 0.0000000000000000000, -2.000000000000000000 ) ) ;
#11 = FILL_AREA_STYLE_COLOUR ( '', #131 ) ;
#12 = EDGE_LOOP ( 'NONE', ( #194, #5 ) ) ;
#13 = EDGE_CURVE ( 'NONE', #98, #118, #44, .T. ) ;
#14 = EDGE_LOOP ( 'NONE', ( #66, #34, #146, #125 ) ) ;
#15 = ORIENTED_EDGE ( 'NONE', *, *, #9, .F. ) ;
#16 = CYLINDRICAL_SURFACE ( 'NONE', #45, 41.20000000000001000 ) ;
#17 = ADVANCED_FACE ( 'NONE', ( #136 ), #95, .F. ) ;
#18 = MANIFOLD_SOLID_BREP ( 'Aufsatz-Linear austragen1', #184 ) ;
#19 = MECHANICAL_DESIGN_GEOMETRIC_PRESENTATION_REPRESENTATION (  '', ( #8 ), #57 ) ;
#20 = AXIS2_PLACEMENT_3D ( 'NONE', #206, #75, #190 ) ;
#21 = ORIENTED_EDGE ( 'NONE', *, *, #195, .F. ) ;
#22 = CARTESIAN_POINT ( 'NONE',  ( 0.0000000000000000000, 0.0000000000000000000, -2.000000000000000000 ) ) ;
#23 = AXIS2_PLACEMENT_3D ( 'NONE', #156, #160, #63 ) ;
#24 = EDGE_CURVE ( 'NONE', #151, #118, #174, .T. ) ;
#25 =( NAMED_UNIT ( * ) SI_UNIT ( $, .STERADIAN. ) SOLID_ANGLE_UNIT ( ) );
#26 = CARTESIAN_POINT ( 'NONE',  ( 0.0000000000000000000, 0.0000000000000000000, 0.0000000000000000000 ) ) ;
#27 = DIRECTION ( 'NONE',  ( 0.0000000000000000000, 0.0000000000000000000, 1.000000000000000000 ) ) ;
#28 =( NAMED_UNIT ( * ) PLANE_ANGLE_UNIT ( ) SI_UNIT ( $, .RADIAN. ) );
#29 = ORIENTED_EDGE ( 'NONE', *, *, #191, .F. ) ;
#30 = SHAPE_DEFINITION_REPRESENTATION ( #134, #126 ) ;
#31 = FACE_OUTER_BOUND ( 'NONE', #135, .T. ) ;
#32 =( GEOMETRIC_REPRESENTATION_CONTEXT ( 3 ) GLOBAL_UNCERTAINTY_ASSIGNED_CONTEXT ( ( #91 ) ) GLOBAL_UNIT_ASSIGNED_CONTEXT ( ( #140, #144, #175 ) ) REPRESENTATION_CONTEXT ( 'NONE', 'WORKASPACE' ) );
#33 = EDGE_CURVE ( 'NONE', #102, #81, #86, .T. ) ;
#34 = ORIENTED_EDGE ( 'NONE', *, *, #191, .T. ) ;
#35 = ADVANCED_FACE ( 'NONE', ( #50 ), #16, .T. ) ;
#36 = AXIS2_PLACEMENT_3D ( 'NONE', #183, #69, #188 ) ;
#37 = CARTESIAN_POINT ( 'NONE',  ( 0.0000000000000000000, 0.0000000000000000000, -2.000000000000000000 ) ) ;
#38 = ORIENTED_EDGE ( 'NONE', *, *, #24, .T. ) ;
#39 = CARTESIAN_POINT ( 'NONE',  ( -31.69999999999999900, 3.882130353297110200E-015, -2.000000000000000000 ) ) ;
#40 = LINE ( 'NONE', #78, #211 ) ;
#41 = DIRECTION ( 'NONE',  ( 1.000000000000000000, 0.0000000000000000000, 0.0000000000000000000 ) ) ;
#42 = CIRCLE ( 'NONE', #67, 41.20000000000001000 ) ;
#43 = SURFACE_STYLE_USAGE ( .BOTH. , #142 ) ;
#44 = CIRCLE ( 'NONE', #150, 31.69999999999999900 ) ;
#45 = AXIS2_PLACEMENT_3D ( 'NONE', #130, #114, #87 ) ;
#46 = APPLICATION_CONTEXT ( 'automotive_design' ) ;
#47 = PRESENTATION_STYLE_ASSIGNMENT (( #43 ) ) ;
#48 = EDGE_LOOP ( 'NONE', ( #29, #64, #38, #199 ) ) ;
#49 = SURFACE_STYLE_FILL_AREA ( #74 ) ;
#50 = FACE_OUTER_BOUND ( 'NONE', #101, .T. ) ;
#51 = PRESENTATION_LAYER_ASSIGNMENT (  '', '', ( #8 ) ) ;
#52 = CIRCLE ( 'NONE', #203, 41.20000000000001000 ) ;
#53 =( GEOMETRIC_REPRESENTATION_CONTEXT ( 3 ) GLOBAL_UNCERTAINTY_ASSIGNED_CONTEXT ( ( #100 ) ) GLOBAL_UNIT_ASSIGNED_CONTEXT ( ( #171, #58, #25 ) ) REPRESENTATION_CONTEXT ( 'NONE', 'WORKASPACE' ) );
#54 = SURFACE_STYLE_USAGE ( .BOTH. , #92 ) ;
#55 = ORIENTED_EDGE ( 'NONE', *, *, #9, .T. ) ;
#56 = DIRECTION ( 'NONE',  ( 0.0000000000000000000, 0.0000000000000000000, 1.000000000000000000 ) ) ;
#57 =( GEOMETRIC_REPRESENTATION_CONTEXT ( 3 ) GLOBAL_UNCERTAINTY_ASSIGNED_CONTEXT ( ( #209 ) ) GLOBAL_UNIT_ASSIGNED_CONTEXT ( ( #133, #28, #147 ) ) REPRESENTATION_CONTEXT ( 'NONE', 'WORKASPACE' ) );
#58 =( NAMED_UNIT ( * ) PLANE_ANGLE_UNIT ( ) SI_UNIT ( $, .RADIAN. ) );
#59 = DIRECTION ( 'NONE',  ( 0.0000000000000000000, 0.0000000000000000000, 1.000000000000000000 ) ) ;
#60 = ORIENTED_EDGE ( 'NONE', *, *, #164, .T. ) ;
#61 = FILL_AREA_STYLE_COLOUR ( '', #132 ) ;
#62 = DIRECTION ( 'NONE',  ( 0.0000000000000000000, 0.0000000000000000000, 1.000000000000000000 ) ) ;
#63 = DIRECTION ( 'NONE',  ( 1.000000000000000000, 0.0000000000000000000, 0.0000000000000000000 ) ) ;
#64 = ORIENTED_EDGE ( 'NONE', *, *, #204, .F. ) ;
#65 = AXIS2_PLACEMENT_3D ( 'NONE', #170, #187, #73 ) ;
#66 = ORIENTED_EDGE ( 'NONE', *, *, #108, .F. ) ;
#67 = AXIS2_PLACEMENT_3D ( 'NONE', #26, #76, #173 ) ;
#68 = DIRECTION ( 'NONE',  ( 1.000000000000000000, 0.0000000000000000000, 0.0000000000000000000 ) ) ;
#69 = DIRECTION ( 'NONE',  ( 0.0000000000000000000, 0.0000000000000000000, 1.000000000000000000 ) ) ;
#70 = ORIENTED_EDGE ( 'NONE', *, *, #33, .T. ) ;
#71 = VECTOR ( 'NONE', #56, 1000.000000000000000 ) ;
#72 = DIRECTION ( 'NONE',  ( 0.0000000000000000000, 0.0000000000000000000, 1.000000000000000000 ) ) ;
#73 = DIRECTION ( 'NONE',  ( 1.000000000000000000, 0.0000000000000000000, 0.0000000000000000000 ) ) ;
#74 = FILL_AREA_STYLE ('',( #11 ) ) ;
#75 = DIRECTION ( 'NONE',  ( 0.0000000000000000000, 0.0000000000000000000, 1.000000000000000000 ) ) ;
#76 = DIRECTION ( 'NONE',  ( 0.0000000000000000000, 0.0000000000000000000, 1.000000000000000000 ) ) ;
#77 = MECHANICAL_DESIGN_GEOMETRIC_PRESENTATION_REPRESENTATION (  '', ( #181 ), #53 ) ;
#78 = CARTESIAN_POINT ( 'NONE',  ( -41.20000000000001000, 5.045544812487095700E-015, -2.000000000000000000 ) ) ;
#79 = ORIENTED_EDGE ( 'NONE', *, *, #1, .F. ) ;
#80 = AXIS2_PLACEMENT_3D ( 'NONE', #128, #139, #68 ) ;
#81 = VERTEX_POINT ( 'NONE', #167 ) ;
#82 = CYLINDRICAL_SURFACE ( 'NONE', #85, 31.69999999999999900 ) ;
#83 = ORIENTED_EDGE ( 'NONE', *, *, #198, .T. ) ;
#84 = CIRCLE ( 'NONE', #65, 41.20000000000001000 ) ;
#85 = AXIS2_PLACEMENT_3D ( 'NONE', #37, #193, #96 ) ;
#86 = LINE ( 'NONE', #145, #141 ) ;
#87 = DIRECTION ( 'NONE',  ( 1.000000000000000000, 0.0000000000000000000, 0.0000000000000000000 ) ) ;
#88 = EDGE_LOOP ( 'NONE', ( #15, #83, #70, #21 ) ) ;
#89 = PLANE ( 'NONE',  #20 ) ;
#90 = CIRCLE ( 'NONE', #93, 31.69999999999999900 ) ;
#91 = UNCERTAINTY_MEASURE_WITH_UNIT (LENGTH_MEASURE( 1.000000000000000100E-005 ), #140, 'distance_accuracy_value', 'NONE');
#92 = SURFACE_SIDE_STYLE ('',( #49 ) ) ;
#93 = AXIS2_PLACEMENT_3D ( 'NONE', #143, #110, #172 ) ;
#94 = CARTESIAN_POINT ( 'NONE',  ( -31.69999999999999900, 3.882130353297110200E-015, 0.0000000000000000000 ) ) ;
#95 = CYLINDRICAL_SURFACE ( 'NONE', #120, 31.69999999999999900 ) ;
#96 = DIRECTION ( 'NONE',  ( 1.000000000000000000, 0.0000000000000000000, 0.0000000000000000000 ) ) ;
#97 = DIRECTION ( 'NONE',  ( 1.000000000000000000, 0.0000000000000000000, 0.0000000000000000000 ) ) ;
#98 = VERTEX_POINT ( 'NONE', #94 ) ;
#99 = FACE_OUTER_BOUND ( 'NONE', #88, .T. ) ;
#100 = UNCERTAINTY_MEASURE_WITH_UNIT (LENGTH_MEASURE( 1.000000000000000100E-005 ), #171, 'distance_accuracy_value', 'NONE');
#101 = EDGE_LOOP ( 'NONE', ( #106, #55, #161, #196 ) ) ;
#102 = VERTEX_POINT ( 'NONE', #205 ) ;
#103 = ADVANCED_FACE ( 'NONE', ( #7, #186 ), #89, .F. ) ;
#104 = PRODUCT_DEFINITION_FORMATION_WITH_SPECIFIED_SOURCE ( 'ANY', '', #112, .NOT_KNOWN. ) ;
#105 = PRODUCT_CONTEXT ( 'NONE', #46, 'mechanical' ) ;
#106 = ORIENTED_EDGE ( 'NONE', *, *, #210, .T. ) ;
#107 = DIRECTION ( 'NONE',  ( 0.0000000000000000000, 0.0000000000000000000, 1.000000000000000000 ) ) ;
#108 = EDGE_CURVE ( 'NONE', #111, #151, #90, .T. ) ;
#109 = PRODUCT_DEFINITION_CONTEXT ( 'detailed design', #123, 'design' ) ;
#110 = DIRECTION ( 'NONE',  ( 0.0000000000000000000, 0.0000000000000000000, 1.000000000000000000 ) ) ;
#111 = VERTEX_POINT ( 'NONE', #39 ) ;
#112 = PRODUCT ( '490DFL063-G-S5', '490DFL063-G-S5', '', ( #105 ) ) ;
#113 = CARTESIAN_POINT ( 'NONE',  ( 0.0000000000000000000, 0.0000000000000000000, -2.000000000000000000 ) ) ;
#114 = DIRECTION ( 'NONE',  ( 0.0000000000000000000, 0.0000000000000000000, 1.000000000000000000 ) ) ;
#115 = AXIS2_PLACEMENT_3D ( 'NONE', #22, #27, #154 ) ;
#116 = CARTESIAN_POINT ( 'NONE',  ( 31.69999999999999900, 0.0000000000000000000, 0.0000000000000000000 ) ) ;
#117 = DIRECTION ( 'NONE',  ( 0.0000000000000000000, 0.0000000000000000000, 1.000000000000000000 ) ) ;
#118 = VERTEX_POINT ( 'NONE', #116 ) ;
#119 = DIRECTION ( 'NONE',  ( 0.0000000000000000000, 0.0000000000000000000, 1.000000000000000000 ) ) ;
#120 = AXIS2_PLACEMENT_3D ( 'NONE', #208, #119, #200 ) ;
#121 = ORIENTED_EDGE ( 'NONE', *, *, #108, .T. ) ;
#122 = ADVANCED_FACE ( 'NONE', ( #99 ), #162, .T. ) ;
#123 = APPLICATION_CONTEXT ( 'automotive_design' ) ;
#124 = CARTESIAN_POINT ( 'NONE',  ( 0.0000000000000000000, 0.0000000000000000000, 0.0000000000000000000 ) ) ;
#125 = ORIENTED_EDGE ( 'NONE', *, *, #24, .F. ) ;
#126 = ADVANCED_BREP_SHAPE_REPRESENTATION ( '490DFL063-G-S5', ( #18, #23 ), #32 ) ;
#127 = CARTESIAN_POINT ( 'NONE',  ( 31.69999999999999900, 0.0000000000000000000, -2.000000000000000000 ) ) ;
#128 = CARTESIAN_POINT ( 'NONE',  ( 0.0000000000000000000, 0.0000000000000000000, -2.000000000000000000 ) ) ;
#129 = PRESENTATION_LAYER_ASSIGNMENT (  '', '', ( #181 ) ) ;
#130 = CARTESIAN_POINT ( 'NONE',  ( 0.0000000000000000000, 0.0000000000000000000, -2.000000000000000000 ) ) ;
#131 = COLOUR_RGB ( '',0.7254901960784313500, 0.4470588235294117300, 0.3686274509803921800 ) ;
#132 = COLOUR_RGB ( '',0.7254901960784313500, 0.4470588235294117300, 0.3686274509803921800 ) ;
#133 =( LENGTH_UNIT ( ) NAMED_UNIT ( * ) SI_UNIT ( .MILLI., .METRE. ) );
#134 = PRODUCT_DEFINITION_SHAPE ( 'NONE', 'NONE',  #213 ) ;
#135 = EDGE_LOOP ( 'NONE', ( #60, #207 ) ) ;
#136 = FACE_OUTER_BOUND ( 'NONE', #14, .T. ) ;
#137 = ORIENTED_EDGE ( 'NONE', *, *, #204, .T. ) ;
#138 = PRODUCT_RELATED_PRODUCT_CATEGORY ( 'part', '', ( #112 ) ) ;
#139 = DIRECTION ( 'NONE',  ( 0.0000000000000000000, 0.0000000000000000000, 1.000000000000000000 ) ) ;
#140 =( LENGTH_UNIT ( ) NAMED_UNIT ( * ) SI_UNIT ( .MILLI., .METRE. ) );
#141 = VECTOR ( 'NONE', #59, 1000.000000000000000 ) ;
#142 = SURFACE_SIDE_STYLE ('',( #3 ) ) ;
#143 = CARTESIAN_POINT ( 'NONE',  ( 0.0000000000000000000, 0.0000000000000000000, -2.000000000000000000 ) ) ;
#144 =( NAMED_UNIT ( * ) PLANE_ANGLE_UNIT ( ) SI_UNIT ( $, .RADIAN. ) );
#145 = CARTESIAN_POINT ( 'NONE',  ( 41.20000000000001000, 0.0000000000000000000, -2.000000000000000000 ) ) ;
#146 = ORIENTED_EDGE ( 'NONE', *, *, #13, .T. ) ;
#147 =( NAMED_UNIT ( * ) SI_UNIT ( $, .STERADIAN. ) SOLID_ANGLE_UNIT ( ) );
#148 = EDGE_LOOP ( 'NONE', ( #79, #153 ) ) ;
#149 = FACE_OUTER_BOUND ( 'NONE', #48, .T. ) ;
#150 = AXIS2_PLACEMENT_3D ( 'NONE', #124, #107, #166 ) ;
#151 = VERTEX_POINT ( 'NONE', #10 ) ;
#152 = APPLICATION_PROTOCOL_DEFINITION ( 'draft international standard', 'automotive_design', 1998, #123 ) ;
#153 = ORIENTED_EDGE ( 'NONE', *, *, #13, .F. ) ;
#154 = DIRECTION ( 'NONE',  ( 1.000000000000000000, 0.0000000000000000000, 0.0000000000000000000 ) ) ;
#155 = CARTESIAN_POINT ( 'NONE',  ( -41.20000000000001000, 5.045544812487095700E-015, 0.0000000000000000000 ) ) ;
#156 = CARTESIAN_POINT ( 'NONE',  ( 0.0000000000000000000, 0.0000000000000000000, 0.0000000000000000000 ) ) ;
#157 = DIRECTION ( 'NONE',  ( 0.0000000000000000000, 0.0000000000000000000, 1.000000000000000000 ) ) ;
#158 = CARTESIAN_POINT ( 'NONE',  ( -41.20000000000001000, 5.045544812487095700E-015, -2.000000000000000000 ) ) ;
#159 = EDGE_LOOP ( 'NONE', ( #137, #121 ) ) ;
#160 = DIRECTION ( 'NONE',  ( 0.0000000000000000000, 0.0000000000000000000, 1.000000000000000000 ) ) ;
#161 = ORIENTED_EDGE ( 'NONE', *, *, #164, .F. ) ;
#162 = CYLINDRICAL_SURFACE ( 'NONE', #115, 41.20000000000001000 ) ;
#163 = ADVANCED_FACE ( 'NONE', ( #201, #31 ), #214, .T. ) ;
#164 = EDGE_CURVE ( 'NONE', #81, #212, #42, .T. ) ;
#165 = CIRCLE ( 'NONE', #177, 31.69999999999999900 ) ;
#166 = DIRECTION ( 'NONE',  ( 1.000000000000000000, 0.0000000000000000000, 0.0000000000000000000 ) ) ;
#167 = CARTESIAN_POINT ( 'NONE',  ( 41.20000000000001000, 0.0000000000000000000, 0.0000000000000000000 ) ) ;
#168 = APPLICATION_PROTOCOL_DEFINITION ( 'draft international standard', 'automotive_design', 1998, #46 ) ;
#169 = VECTOR ( 'NONE', #157, 1000.000000000000000 ) ;
#170 = CARTESIAN_POINT ( 'NONE',  ( 0.0000000000000000000, 0.0000000000000000000, -2.000000000000000000 ) ) ;
#171 =( LENGTH_UNIT ( ) NAMED_UNIT ( * ) SI_UNIT ( .MILLI., .METRE. ) );
#172 = DIRECTION ( 'NONE',  ( 1.000000000000000000, 0.0000000000000000000, 0.0000000000000000000 ) ) ;
#173 = DIRECTION ( 'NONE',  ( 1.000000000000000000, 0.0000000000000000000, 0.0000000000000000000 ) ) ;
#174 = LINE ( 'NONE', #127, #169 ) ;
#175 =( NAMED_UNIT ( * ) SI_UNIT ( $, .STERADIAN. ) SOLID_ANGLE_UNIT ( ) );
#176 = PRESENTATION_STYLE_ASSIGNMENT (( #54 ) ) ;
#177 = AXIS2_PLACEMENT_3D ( 'NONE', #192, #62, #97 ) ;
#178 = LINE ( 'NONE', #2, #71 ) ;
#179 = CIRCLE ( 'NONE', #80, 41.20000000000001000 ) ;
#180 = ADVANCED_FACE ( 'NONE', ( #149 ), #82, .F. ) ;
#181 = STYLED_ITEM ( 'NONE', ( #176 ), #18 ) ;
#182 = VERTEX_POINT ( 'NONE', #158 ) ;
#183 = CARTESIAN_POINT ( 'NONE',  ( 0.0000000000000000000, 0.0000000000000000000, 0.0000000000000000000 ) ) ;
#184 = CLOSED_SHELL ( 'NONE', ( #17, #35, #122, #103, #163, #180 ) ) ;
#185 = CARTESIAN_POINT ( 'NONE',  ( 0.0000000000000000000, 0.0000000000000000000, 0.0000000000000000000 ) ) ;
#186 = FACE_OUTER_BOUND ( 'NONE', #12, .T. ) ;
#187 = DIRECTION ( 'NONE',  ( 0.0000000000000000000, 0.0000000000000000000, 1.000000000000000000 ) ) ;
#188 = DIRECTION ( 'NONE',  ( 1.000000000000000000, 0.0000000000000000000, -0.0000000000000000000 ) ) ;
#189 = AXIS2_PLACEMENT_3D ( 'NONE', #113, #6, #41 ) ;
#190 = DIRECTION ( 'NONE',  ( 1.000000000000000000, 0.0000000000000000000, -0.0000000000000000000 ) ) ;
#191 = EDGE_CURVE ( 'NONE', #111, #98, #178, .T. ) ;
#192 = CARTESIAN_POINT ( 'NONE',  ( 0.0000000000000000000, 0.0000000000000000000, 0.0000000000000000000 ) ) ;
#193 = DIRECTION ( 'NONE',  ( 0.0000000000000000000, 0.0000000000000000000, 1.000000000000000000 ) ) ;
#194 = ORIENTED_EDGE ( 'NONE', *, *, #210, .F. ) ;
#195 = EDGE_CURVE ( 'NONE', #212, #81, #52, .T. ) ;
#196 = ORIENTED_EDGE ( 'NONE', *, *, #33, .F. ) ;
#197 = CIRCLE ( 'NONE', #189, 31.69999999999999900 ) ;
#198 = EDGE_CURVE ( 'NONE', #182, #102, #179, .T. ) ;
#199 = ORIENTED_EDGE ( 'NONE', *, *, #1, .T. ) ;
#200 = DIRECTION ( 'NONE',  ( 1.000000000000000000, 0.0000000000000000000, 0.0000000000000000000 ) ) ;
#201 = FACE_BOUND ( 'NONE', #148, .T. ) ;
#202 = FILL_AREA_STYLE ('',( #61 ) ) ;
#203 = AXIS2_PLACEMENT_3D ( 'NONE', #185, #72, #4 ) ;
#204 = EDGE_CURVE ( 'NONE', #151, #111, #197, .T. ) ;
#205 = CARTESIAN_POINT ( 'NONE',  ( 41.20000000000001000, 0.0000000000000000000, -2.000000000000000000 ) ) ;
#206 = CARTESIAN_POINT ( 'NONE',  ( 0.0000000000000000000, 0.0000000000000000000, -2.000000000000000000 ) ) ;
#207 = ORIENTED_EDGE ( 'NONE', *, *, #195, .T. ) ;
#208 = CARTESIAN_POINT ( 'NONE',  ( 0.0000000000000000000, 0.0000000000000000000, -2.000000000000000000 ) ) ;
#209 = UNCERTAINTY_MEASURE_WITH_UNIT (LENGTH_MEASURE( 1.000000000000000100E-005 ), #133, 'distance_accuracy_value', 'NONE');
#210 = EDGE_CURVE ( 'NONE', #102, #182, #84, .T. ) ;
#211 = VECTOR ( 'NONE', #117, 1000.000000000000000 ) ;
#212 = VERTEX_POINT ( 'NONE', #155 ) ;
#213 = PRODUCT_DEFINITION ( 'UNKNOWN', '', #104, #109 ) ;
#214 = PLANE ( 'NONE',  #36 ) ;
ENDSEC;
END-ISO-10303-21;
