ISO-10303-21;
HEADER;
FILE_DESCRIPTION (( 'STEP AP214' ),
    '1' );
FILE_NAME ('306DOR063-S1.step',
    '2017-07-07T05:02:37',
    ( 'install' ),
    ( '' ),
    'SwSTEP 2.0',
    'SolidWorks 2015',
    '' );
FILE_SCHEMA (( 'AUTOMOTIVE_DESIGN' ));
ENDSEC;

DATA;
#1 = CARTESIAN_POINT ( 'NONE',  ( 40.66499999999999900, 4.980026208732712000E-015, 0.0000000000000000000 ) ) ;
#2 = EDGE_CURVE ( 'NONE', #9, #32, #104, .T. ) ;
#3 = FACE_OUTER_BOUND ( 'NONE', #109, .T. ) ;
#4 = EDGE_LOOP ( 'NONE', ( #92, #77, #17, #116 ) ) ;
#5 = PRESENTATION_STYLE_ASSIGNMENT (( #23 ) ) ;
#6 = DIRECTION ( 'NONE',  ( 0.0000000000000000000, 0.0000000000000000000, -1.000000000000000000 ) ) ;
#7 = AXIS2_PLACEMENT_3D ( 'NONE', #13, #152, #119 ) ;
#8 = DIRECTION ( 'NONE',  ( -1.000000000000000000, 0.0000000000000000000, 0.0000000000000000000 ) ) ;
#9 = VERTEX_POINT ( 'NONE', #34 ) ;
#10 = DIRECTION ( 'NONE',  ( -0.0000000000000000000, -0.0000000000000000000, -1.000000000000000000 ) ) ;
#11 = AXIS2_PLACEMENT_3D ( 'NONE', #156, #72, #8 ) ;
#12 = DIRECTION ( 'NONE',  ( 0.0000000000000000000, -1.000000000000000000, 0.0000000000000000000 ) ) ;
#13 = CARTESIAN_POINT ( 'NONE',  ( 0.0000000000000000000, 0.0000000000000000000, 0.0000000000000000000 ) ) ;
#14 = AXIS2_PLACEMENT_3D ( 'NONE', #1, #38, #28 ) ;
#15 = CIRCLE ( 'NONE', #14, 2.665000000000000900 ) ;
#16 =( GEOMETRIC_REPRESENTATION_CONTEXT ( 3 ) GLOBAL_UNCERTAINTY_ASSIGNED_CONTEXT ( ( #74 ) ) GLOBAL_UNIT_ASSIGNED_CONTEXT ( ( #50, #95, #25 ) ) REPRESENTATION_CONTEXT ( 'NONE', 'WORKASPACE' ) );
#17 = ORIENTED_EDGE ( 'NONE', *, *, #76, .T. ) ;
#18 =( NAMED_UNIT ( * ) SI_UNIT ( $, .STERADIAN. ) SOLID_ANGLE_UNIT ( ) );
#19 = DIRECTION ( 'NONE',  ( -1.000000000000000000, 0.0000000000000000000, 0.0000000000000000000 ) ) ;
#20 = DIRECTION ( 'NONE',  ( -0.0000000000000000000, -0.0000000000000000000, -1.000000000000000000 ) ) ;
#21 =( NAMED_UNIT ( * ) PLANE_ANGLE_UNIT ( ) SI_UNIT ( $, .RADIAN. ) );
#22 =( LENGTH_UNIT ( ) NAMED_UNIT ( * ) SI_UNIT ( .MILLI., .METRE. ) );
#23 = SURFACE_STYLE_USAGE ( .BOTH. , #24 ) ;
#24 = SURFACE_SIDE_STYLE ('',( #71 ) ) ;
#25 =( NAMED_UNIT ( * ) SI_UNIT ( $, .STERADIAN. ) SOLID_ANGLE_UNIT ( ) );
#26 = ORIENTED_EDGE ( 'NONE', *, *, #67, .F. ) ;
#27 = FILL_AREA_STYLE ('',( #58 ) ) ;
#28 = DIRECTION ( 'NONE',  ( -1.000000000000000000, -1.224646799147354400E-016, 0.0000000000000000000 ) ) ;
#29 = PRESENTATION_STYLE_ASSIGNMENT (( #143 ) ) ;
#30 = CARTESIAN_POINT ( 'NONE',  ( -43.32999999999999800, 0.0000000000000000000, 0.0000000000000000000 ) ) ;
#31 = CARTESIAN_POINT ( 'NONE',  ( 0.0000000000000000000, 0.0000000000000000000, 0.0000000000000000000 ) ) ;
#32 = VERTEX_POINT ( 'NONE', #30 ) ;
#33 = PRODUCT_DEFINITION_FORMATION_WITH_SPECIFIED_SOURCE ( 'ANY', '', #37, .NOT_KNOWN. ) ;
#34 = CARTESIAN_POINT ( 'NONE',  ( 43.32999999999999800, 5.306394580705481300E-015, 0.0000000000000000000 ) ) ;
#35 = DIRECTION ( 'NONE',  ( -0.0000000000000000000, -0.0000000000000000000, -1.000000000000000000 ) ) ;
#36 = DIRECTION ( 'NONE',  ( -0.0000000000000000000, -0.0000000000000000000, -1.000000000000000000 ) ) ;
#37 = PRODUCT ( '306DOR063-S1', '306DOR063-S1', '', ( #144 ) ) ;
#38 = DIRECTION ( 'NONE',  ( -1.224646799147353200E-016, 1.000000000000000000, 0.0000000000000000000 ) ) ;
#39 = CARTESIAN_POINT ( 'NONE',  ( 0.0000000000000000000, 0.0000000000000000000, 3.263683719727698600E-016 ) ) ;
#40 = CARTESIAN_POINT ( 'NONE',  ( -38.00000000000000000, 0.0000000000000000000, 3.263683719727700000E-016 ) ) ;
#41 = STYLED_ITEM ( 'NONE', ( #29 ), #131 ) ;
#42 = APPLICATION_PROTOCOL_DEFINITION ( 'draft international standard', 'automotive_design', 1998, #85 ) ;
#43 = TOROIDAL_SURFACE ( 'NONE', #11, 40.66499999999999900, 2.665000000000001800 ) ;
#44 = CARTESIAN_POINT ( 'NONE',  ( 40.66499999999999900, 4.980026208732712000E-015, 0.0000000000000000000 ) ) ;
#45 = AXIS2_PLACEMENT_3D ( 'NONE', #113, #20, #101 ) ;
#46 = CARTESIAN_POINT ( 'NONE',  ( -40.66499999999999900, 0.0000000000000000000, 0.0000000000000000000 ) ) ;
#47 = ORIENTED_EDGE ( 'NONE', *, *, #2, .F. ) ;
#48 = DIRECTION ( 'NONE',  ( -1.224646799147353200E-016, 1.000000000000000000, 0.0000000000000000000 ) ) ;
#49 = PRODUCT_DEFINITION_SHAPE ( 'NONE', 'NONE',  #79 ) ;
#50 =( LENGTH_UNIT ( ) NAMED_UNIT ( * ) SI_UNIT ( .MILLI., .METRE. ) );
#51 = MECHANICAL_DESIGN_GEOMETRIC_PRESENTATION_REPRESENTATION (  '', ( #41 ), #80 ) ;
#52 = CIRCLE ( 'NONE', #132, 2.665000000000000900 ) ;
#53 = ADVANCED_FACE ( 'NONE', ( #59 ), #139, .T. ) ;
#54 = ORIENTED_EDGE ( 'NONE', *, *, #2, .T. ) ;
#55 = ORIENTED_EDGE ( 'NONE', *, *, #67, .T. ) ;
#56 = EDGE_CURVE ( 'NONE', #120, #9, #52, .T. ) ;
#57 = AXIS2_PLACEMENT_3D ( 'NONE', #46, #12, #6 ) ;
#58 = FILL_AREA_STYLE_COLOUR ( '', #128 ) ;
#59 = FACE_OUTER_BOUND ( 'NONE', #63, .T. ) ;
#60 = ORIENTED_EDGE ( 'NONE', *, *, #68, .T. ) ;
#61 = DIRECTION ( 'NONE',  ( -0.0000000000000000000, -0.0000000000000000000, -1.000000000000000000 ) ) ;
#62 = FILL_AREA_STYLE ('',( #66 ) ) ;
#63 = EDGE_LOOP ( 'NONE', ( #47, #96, #81, #55 ) ) ;
#64 =( LENGTH_UNIT ( ) NAMED_UNIT ( * ) SI_UNIT ( .MILLI., .METRE. ) );
#65 = CARTESIAN_POINT ( 'NONE',  ( 0.0000000000000000000, 0.0000000000000000000, 0.0000000000000000000 ) ) ;
#66 = FILL_AREA_STYLE_COLOUR ( '', #114 ) ;
#67 = EDGE_CURVE ( 'NONE', #73, #32, #69, .T. ) ;
#68 = EDGE_CURVE ( 'NONE', #32, #73, #83, .T. ) ;
#69 = CIRCLE ( 'NONE', #57, 2.665000000000001800 ) ;
#70 = ADVANCED_FACE ( 'NONE', ( #3 ), #112, .T. ) ;
#71 = SURFACE_STYLE_FILL_AREA ( #27 ) ;
#72 = DIRECTION ( 'NONE',  ( -0.0000000000000000000, -0.0000000000000000000, -1.000000000000000000 ) ) ;
#73 = VERTEX_POINT ( 'NONE', #40 ) ;
#74 = UNCERTAINTY_MEASURE_WITH_UNIT (LENGTH_MEASURE( 1.000000000000000100E-005 ), #50, 'distance_accuracy_value', 'NONE');
#75 = FACE_OUTER_BOUND ( 'NONE', #147, .T. ) ;
#76 = EDGE_CURVE ( 'NONE', #9, #120, #15, .T. ) ;
#77 = ORIENTED_EDGE ( 'NONE', *, *, #150, .T. ) ;
#78 = ORIENTED_EDGE ( 'NONE', *, *, #150, .F. ) ;
#79 = PRODUCT_DEFINITION ( 'UNKNOWN', '', #33, #121 ) ;
#80 =( GEOMETRIC_REPRESENTATION_CONTEXT ( 3 ) GLOBAL_UNCERTAINTY_ASSIGNED_CONTEXT ( ( #111 ) ) GLOBAL_UNIT_ASSIGNED_CONTEXT ( ( #64, #102, #125 ) ) REPRESENTATION_CONTEXT ( 'NONE', 'WORKASPACE' ) );
#81 = ORIENTED_EDGE ( 'NONE', *, *, #107, .T. ) ;
#82 = PRESENTATION_LAYER_ASSIGNMENT (  '', '', ( #115 ) ) ;
#83 = CIRCLE ( 'NONE', #117, 2.665000000000001800 ) ;
#84 = ORIENTED_EDGE ( 'NONE', *, *, #76, .F. ) ;
#85 = APPLICATION_CONTEXT ( 'automotive_design' ) ;
#86 = ORIENTED_EDGE ( 'NONE', *, *, #107, .F. ) ;
#87 = DIRECTION ( 'NONE',  ( 1.000000000000000000, 0.0000000000000000000, 0.0000000000000000000 ) ) ;
#88 = FACE_OUTER_BOUND ( 'NONE', #4, .T. ) ;
#89 = AXIS2_PLACEMENT_3D ( 'NONE', #65, #10, #122 ) ;
#90 = PRODUCT_RELATED_PRODUCT_CATEGORY ( 'part', '', ( #37 ) ) ;
#91 = APPLICATION_CONTEXT ( 'automotive_design' ) ;
#92 = ORIENTED_EDGE ( 'NONE', *, *, #68, .F. ) ;
#93 = PRESENTATION_LAYER_ASSIGNMENT (  '', '', ( #41 ) ) ;
#94 = DIRECTION ( 'NONE',  ( -1.000000000000000000, 0.0000000000000000000, 0.0000000000000000000 ) ) ;
#95 =( NAMED_UNIT ( * ) PLANE_ANGLE_UNIT ( ) SI_UNIT ( $, .RADIAN. ) );
#96 = ORIENTED_EDGE ( 'NONE', *, *, #56, .F. ) ;
#97 = AXIS2_PLACEMENT_3D ( 'NONE', #126, #61, #94 ) ;
#98 =( GEOMETRIC_REPRESENTATION_CONTEXT ( 3 ) GLOBAL_UNCERTAINTY_ASSIGNED_CONTEXT ( ( #151 ) ) GLOBAL_UNIT_ASSIGNED_CONTEXT ( ( #22, #21, #18 ) ) REPRESENTATION_CONTEXT ( 'NONE', 'WORKASPACE' ) );
#99 = AXIS2_PLACEMENT_3D ( 'NONE', #39, #35, #19 ) ;
#100 = CLOSED_SHELL ( 'NONE', ( #148, #108, #70, #53 ) ) ;
#101 = DIRECTION ( 'NONE',  ( -1.000000000000000000, 0.0000000000000000000, 0.0000000000000000000 ) ) ;
#102 =( NAMED_UNIT ( * ) PLANE_ANGLE_UNIT ( ) SI_UNIT ( $, .RADIAN. ) );
#103 = CIRCLE ( 'NONE', #45, 38.00000000000000000 ) ;
#104 = CIRCLE ( 'NONE', #141, 43.32999999999999800 ) ;
#105 = MANIFOLD_SOLID_BREP ( 'Rotation1', #100 ) ;
#106 = DIRECTION ( 'NONE',  ( 0.0000000000000000000, 0.0000000000000000000, 1.000000000000000000 ) ) ;
#107 = EDGE_CURVE ( 'NONE', #120, #73, #103, .T. ) ;
#108 = ADVANCED_FACE ( 'NONE', ( #88 ), #123, .T. ) ;
#109 = EDGE_LOOP ( 'NONE', ( #78, #26, #146, #134 ) ) ;
#110 = AXIS2_PLACEMENT_3D ( 'NONE', #133, #155, #130 ) ;
#111 = UNCERTAINTY_MEASURE_WITH_UNIT (LENGTH_MEASURE( 1.000000000000000100E-005 ), #64, 'distance_accuracy_value', 'NONE');
#112 = TOROIDAL_SURFACE ( 'NONE', #110, 40.66499999999999900, 2.665000000000001800 ) ;
#113 = CARTESIAN_POINT ( 'NONE',  ( 0.0000000000000000000, 0.0000000000000000000, 3.263683719727698600E-016 ) ) ;
#114 = COLOUR_RGB ( '',0.3843137254901960500, 0.3843137254901960500, 0.3843137254901960500 ) ;
#115 = STYLED_ITEM ( 'NONE', ( #5 ), #105 ) ;
#116 = ORIENTED_EDGE ( 'NONE', *, *, #145, .F. ) ;
#117 = AXIS2_PLACEMENT_3D ( 'NONE', #129, #140, #153 ) ;
#118 = SURFACE_SIDE_STYLE ('',( #135 ) ) ;
#119 = DIRECTION ( 'NONE',  ( -1.000000000000000000, 0.0000000000000000000, 0.0000000000000000000 ) ) ;
#120 = VERTEX_POINT ( 'NONE', #149 ) ;
#121 = PRODUCT_DEFINITION_CONTEXT ( 'detailed design', #85, 'design' ) ;
#122 = DIRECTION ( 'NONE',  ( -1.000000000000000000, 0.0000000000000000000, 0.0000000000000000000 ) ) ;
#123 = TOROIDAL_SURFACE ( 'NONE', #97, 40.66499999999999900, 2.665000000000001800 ) ;
#124 = CARTESIAN_POINT ( 'NONE',  ( 0.0000000000000000000, 0.0000000000000000000, 0.0000000000000000000 ) ) ;
#125 =( NAMED_UNIT ( * ) SI_UNIT ( $, .STERADIAN. ) SOLID_ANGLE_UNIT ( ) );
#126 = CARTESIAN_POINT ( 'NONE',  ( 0.0000000000000000000, 0.0000000000000000000, 0.0000000000000000000 ) ) ;
#127 = SHAPE_DEFINITION_REPRESENTATION ( #49, #131 ) ;
#128 = COLOUR_RGB ( '',0.3843137254901960500, 0.3843137254901960500, 0.3843137254901960500 ) ;
#129 = CARTESIAN_POINT ( 'NONE',  ( -40.66499999999999900, 0.0000000000000000000, 0.0000000000000000000 ) ) ;
#130 = DIRECTION ( 'NONE',  ( -1.000000000000000000, 0.0000000000000000000, 0.0000000000000000000 ) ) ;
#131 = ADVANCED_BREP_SHAPE_REPRESENTATION ( '306DOR063-S1', ( #105, #137 ), #16 ) ;
#132 = AXIS2_PLACEMENT_3D ( 'NONE', #44, #48, #142 ) ;
#133 = CARTESIAN_POINT ( 'NONE',  ( 0.0000000000000000000, 0.0000000000000000000, 0.0000000000000000000 ) ) ;
#134 = ORIENTED_EDGE ( 'NONE', *, *, #56, .T. ) ;
#135 = SURFACE_STYLE_FILL_AREA ( #62 ) ;
#136 = DIRECTION ( 'NONE',  ( -1.000000000000000000, 0.0000000000000000000, 0.0000000000000000000 ) ) ;
#137 = AXIS2_PLACEMENT_3D ( 'NONE', #124, #106, #87 ) ;
#138 = MECHANICAL_DESIGN_GEOMETRIC_PRESENTATION_REPRESENTATION (  '', ( #115 ), #98 ) ;
#139 = TOROIDAL_SURFACE ( 'NONE', #89, 40.66499999999999900, 2.665000000000001800 ) ;
#140 = DIRECTION ( 'NONE',  ( 0.0000000000000000000, -1.000000000000000000, 0.0000000000000000000 ) ) ;
#141 = AXIS2_PLACEMENT_3D ( 'NONE', #31, #36, #136 ) ;
#142 = DIRECTION ( 'NONE',  ( -1.000000000000000000, -1.224646799147354400E-016, 0.0000000000000000000 ) ) ;
#143 = SURFACE_STYLE_USAGE ( .BOTH. , #118 ) ;
#144 = PRODUCT_CONTEXT ( 'NONE', #91, 'mechanical' ) ;
#145 = EDGE_CURVE ( 'NONE', #73, #120, #154, .T. ) ;
#146 = ORIENTED_EDGE ( 'NONE', *, *, #145, .T. ) ;
#147 = EDGE_LOOP ( 'NONE', ( #84, #54, #60, #86 ) ) ;
#148 = ADVANCED_FACE ( 'NONE', ( #75 ), #43, .T. ) ;
#149 = CARTESIAN_POINT ( 'NONE',  ( 38.00000000000000000, 4.653657836759941900E-015, 0.0000000000000000000 ) ) ;
#150 = EDGE_CURVE ( 'NONE', #32, #9, #157, .T. ) ;
#151 = UNCERTAINTY_MEASURE_WITH_UNIT (LENGTH_MEASURE( 1.000000000000000100E-005 ), #22, 'distance_accuracy_value', 'NONE');
#152 = DIRECTION ( 'NONE',  ( -0.0000000000000000000, -0.0000000000000000000, -1.000000000000000000 ) ) ;
#153 = DIRECTION ( 'NONE',  ( 0.0000000000000000000, 0.0000000000000000000, -1.000000000000000000 ) ) ;
#154 = CIRCLE ( 'NONE', #99, 38.00000000000000000 ) ;
#155 = DIRECTION ( 'NONE',  ( -0.0000000000000000000, -0.0000000000000000000, -1.000000000000000000 ) ) ;
#156 = CARTESIAN_POINT ( 'NONE',  ( 0.0000000000000000000, 0.0000000000000000000, 0.0000000000000000000 ) ) ;
#157 = CIRCLE ( 'NONE', #7, 43.32999999999999800 ) ;
#158 = APPLICATION_PROTOCOL_DEFINITION ( 'draft international standard', 'automotive_design', 1998, #91 ) ;
ENDSEC;
END-ISO-10303-21;
