ISO-10303-21;
HEADER;
FILE_DESCRIPTION (( 'STEP AP214' ),
    '1' );
FILE_NAME ('302DOR160-S1.step',
    '2017-07-07T05:04:04',
    ( 'install' ),
    ( '' ),
    'SwSTEP 2.0',
    'SolidWorks 2015',
    '' );
FILE_SCHEMA (( 'AUTOMOTIVE_DESIGN' ));
ENDSEC;

DATA;
#1 = EDGE_CURVE ( 'NONE', #81, #114, #104, .T. ) ;
#2 =( NAMED_UNIT ( * ) PLANE_ANGLE_UNIT ( ) SI_UNIT ( $, .RADIAN. ) );
#3 = UNCERTAINTY_MEASURE_WITH_UNIT (LENGTH_MEASURE( 1.000000000000000100E-005 ), #129, 'distance_accuracy_value', 'NONE');
#4 = CARTESIAN_POINT ( 'NONE',  ( 0.0000000000000000000, 0.0000000000000000000, 0.0000000000000000000 ) ) ;
#5 = DIRECTION ( 'NONE',  ( 0.0000000000000000000, 0.0000000000000000000, 1.000000000000000000 ) ) ;
#6 = AXIS2_PLACEMENT_3D ( 'NONE', #32, #154, #123 ) ;
#7 = FILL_AREA_STYLE ('',( #134 ) ) ;
#8 = DIRECTION ( 'NONE',  ( 0.0000000000000000000, -1.000000000000000000, 0.0000000000000000000 ) ) ;
#9 = AXIS2_PLACEMENT_3D ( 'NONE', #34, #22, #77 ) ;
#10 = CARTESIAN_POINT ( 'NONE',  ( 84.32999999999999800, 1.032744645720962900E-014, 0.0000000000000000000 ) ) ;
#11 = TOROIDAL_SURFACE ( 'NONE', #35, 81.66500000000000600, 2.664999999999999100 ) ;
#12 = DIRECTION ( 'NONE',  ( -0.0000000000000000000, -0.0000000000000000000, -1.000000000000000000 ) ) ;
#13 = PRODUCT_DEFINITION ( 'UNKNOWN', '', #31, #23 ) ;
#14 = CARTESIAN_POINT ( 'NONE',  ( 0.0000000000000000000, 0.0000000000000000000, 3.263683719727695100E-016 ) ) ;
#15 = PRODUCT_CONTEXT ( 'NONE', #117, 'mechanical' ) ;
#16 = DIRECTION ( 'NONE',  ( -1.000000000000000000, 0.0000000000000000000, 0.0000000000000000000 ) ) ;
#17 = SURFACE_STYLE_USAGE ( .BOTH. , #120 ) ;
#18 = EDGE_CURVE ( 'NONE', #110, #131, #39, .T. ) ;
#19 = ORIENTED_EDGE ( 'NONE', *, *, #109, .F. ) ;
#20 = DIRECTION ( 'NONE',  ( -1.000000000000000000, 0.0000000000000000000, 0.0000000000000000000 ) ) ;
#21 = CARTESIAN_POINT ( 'NONE',  ( 81.66500000000000600, 1.000107808523685900E-014, 0.0000000000000000000 ) ) ;
#22 = DIRECTION ( 'NONE',  ( 0.0000000000000000000, -1.000000000000000000, 0.0000000000000000000 ) ) ;
#23 = PRODUCT_DEFINITION_CONTEXT ( 'detailed design', #101, 'design' ) ;
#24 = APPLICATION_PROTOCOL_DEFINITION ( 'draft international standard', 'automotive_design', 1998, #101 ) ;
#25 = ADVANCED_FACE ( 'NONE', ( #97 ), #93, .T. ) ;
#26 = MECHANICAL_DESIGN_GEOMETRIC_PRESENTATION_REPRESENTATION (  '', ( #53 ), #36 ) ;
#27 = CIRCLE ( 'NONE', #125, 84.32999999999999800 ) ;
#28 = CARTESIAN_POINT ( 'NONE',  ( 79.00000000000000000, 9.674709713264090900E-015, 0.0000000000000000000 ) ) ;
#29 = CIRCLE ( 'NONE', #76, 79.00000000000000000 ) ;
#30 = COLOUR_RGB ( '',0.3843137254901960500, 0.3843137254901960500, 0.3843137254901960500 ) ;
#31 = PRODUCT_DEFINITION_FORMATION_WITH_SPECIFIED_SOURCE ( 'ANY', '', #141, .NOT_KNOWN. ) ;
#32 = CARTESIAN_POINT ( 'NONE',  ( 81.66500000000000600, 1.000107808523685900E-014, 0.0000000000000000000 ) ) ;
#33 = ADVANCED_FACE ( 'NONE', ( #86 ), #88, .T. ) ;
#34 = CARTESIAN_POINT ( 'NONE',  ( -81.66500000000000600, 0.0000000000000000000, 0.0000000000000000000 ) ) ;
#35 = AXIS2_PLACEMENT_3D ( 'NONE', #48, #116, #16 ) ;
#36 =( GEOMETRIC_REPRESENTATION_CONTEXT ( 3 ) GLOBAL_UNCERTAINTY_ASSIGNED_CONTEXT ( ( #71 ) ) GLOBAL_UNIT_ASSIGNED_CONTEXT ( ( #140, #59, #149 ) ) REPRESENTATION_CONTEXT ( 'NONE', 'WORKASPACE' ) );
#37 = PRODUCT_RELATED_PRODUCT_CATEGORY ( 'part', '', ( #141 ) ) ;
#38 = FILL_AREA_STYLE ('',( #87 ) ) ;
#39 = CIRCLE ( 'NONE', #9, 2.664999999999999100 ) ;
#40 = EDGE_CURVE ( 'NONE', #81, #110, #105, .T. ) ;
#41 = ADVANCED_FACE ( 'NONE', ( #91 ), #11, .T. ) ;
#42 = AXIS2_PLACEMENT_3D ( 'NONE', #21, #144, #50 ) ;
#43 = CARTESIAN_POINT ( 'NONE',  ( 0.0000000000000000000, 0.0000000000000000000, 3.263683719727695100E-016 ) ) ;
#44 = ADVANCED_FACE ( 'NONE', ( #63 ), #61, .T. ) ;
#45 = DIRECTION ( 'NONE',  ( 0.0000000000000000000, 0.0000000000000000000, -1.000000000000000000 ) ) ;
#46 =( GEOMETRIC_REPRESENTATION_CONTEXT ( 3 ) GLOBAL_UNCERTAINTY_ASSIGNED_CONTEXT ( ( #135 ) ) GLOBAL_UNIT_ASSIGNED_CONTEXT ( ( #70, #2, #80 ) ) REPRESENTATION_CONTEXT ( 'NONE', 'WORKASPACE' ) );
#47 = PRODUCT_DEFINITION_SHAPE ( 'NONE', 'NONE',  #13 ) ;
#48 = CARTESIAN_POINT ( 'NONE',  ( 0.0000000000000000000, 0.0000000000000000000, 0.0000000000000000000 ) ) ;
#49 = SURFACE_STYLE_USAGE ( .BOTH. , #132 ) ;
#50 = DIRECTION ( 'NONE',  ( -1.000000000000000000, -1.224646799147351500E-016, 0.0000000000000000000 ) ) ;
#51 = PRESENTATION_LAYER_ASSIGNMENT (  '', '', ( #84 ) ) ;
#52 = MECHANICAL_DESIGN_GEOMETRIC_PRESENTATION_REPRESENTATION (  '', ( #84 ), #60 ) ;
#53 = STYLED_ITEM ( 'NONE', ( #90 ), #106 ) ;
#54 = CARTESIAN_POINT ( 'NONE',  ( -84.32999999999999800, 0.0000000000000000000, 0.0000000000000000000 ) ) ;
#55 = ORIENTED_EDGE ( 'NONE', *, *, #111, .F. ) ;
#56 = DIRECTION ( 'NONE',  ( -1.000000000000000000, 0.0000000000000000000, 0.0000000000000000000 ) ) ;
#57 = CIRCLE ( 'NONE', #148, 84.32999999999999800 ) ;
#58 = DIRECTION ( 'NONE',  ( -1.000000000000000000, 0.0000000000000000000, 0.0000000000000000000 ) ) ;
#59 =( NAMED_UNIT ( * ) PLANE_ANGLE_UNIT ( ) SI_UNIT ( $, .RADIAN. ) );
#60 =( GEOMETRIC_REPRESENTATION_CONTEXT ( 3 ) GLOBAL_UNCERTAINTY_ASSIGNED_CONTEXT ( ( #3 ) ) GLOBAL_UNIT_ASSIGNED_CONTEXT ( ( #129, #147, #96 ) ) REPRESENTATION_CONTEXT ( 'NONE', 'WORKASPACE' ) );
#61 = TOROIDAL_SURFACE ( 'NONE', #89, 81.66500000000000600, 2.664999999999999100 ) ;
#62 = SURFACE_STYLE_FILL_AREA ( #38 ) ;
#63 = FACE_OUTER_BOUND ( 'NONE', #136, .T. ) ;
#64 = ORIENTED_EDGE ( 'NONE', *, *, #18, .F. ) ;
#65 = DIRECTION ( 'NONE',  ( -0.0000000000000000000, -0.0000000000000000000, -1.000000000000000000 ) ) ;
#66 = CIRCLE ( 'NONE', #42, 2.665000000000000900 ) ;
#67 = DIRECTION ( 'NONE',  ( -0.0000000000000000000, -0.0000000000000000000, -1.000000000000000000 ) ) ;
#68 = CARTESIAN_POINT ( 'NONE',  ( 0.0000000000000000000, 0.0000000000000000000, 0.0000000000000000000 ) ) ;
#69 = PRESENTATION_STYLE_ASSIGNMENT (( #17 ) ) ;
#70 =( LENGTH_UNIT ( ) NAMED_UNIT ( * ) SI_UNIT ( .MILLI., .METRE. ) );
#71 = UNCERTAINTY_MEASURE_WITH_UNIT (LENGTH_MEASURE( 1.000000000000000100E-005 ), #140, 'distance_accuracy_value', 'NONE');
#72 = AXIS2_PLACEMENT_3D ( 'NONE', #68, #138, #94 ) ;
#73 = DIRECTION ( 'NONE',  ( -0.0000000000000000000, -0.0000000000000000000, -1.000000000000000000 ) ) ;
#74 = MANIFOLD_SOLID_BREP ( 'Rotation1', #85 ) ;
#75 = CIRCLE ( 'NONE', #151, 2.664999999999999100 ) ;
#76 = AXIS2_PLACEMENT_3D ( 'NONE', #43, #65, #20 ) ;
#77 = DIRECTION ( 'NONE',  ( 0.0000000000000000000, 0.0000000000000000000, -1.000000000000000000 ) ) ;
#78 = AXIS2_PLACEMENT_3D ( 'NONE', #127, #113, #56 ) ;
#79 = EDGE_CURVE ( 'NONE', #131, #110, #75, .T. ) ;
#80 =( NAMED_UNIT ( * ) SI_UNIT ( $, .STERADIAN. ) SOLID_ANGLE_UNIT ( ) );
#81 = VERTEX_POINT ( 'NONE', #28 ) ;
#82 = DIRECTION ( 'NONE',  ( 1.000000000000000000, 0.0000000000000000000, 0.0000000000000000000 ) ) ;
#83 = EDGE_CURVE ( 'NONE', #114, #81, #66, .T. ) ;
#84 = STYLED_ITEM ( 'NONE', ( #69 ), #74 ) ;
#85 = CLOSED_SHELL ( 'NONE', ( #41, #44, #33, #25 ) ) ;
#86 = FACE_OUTER_BOUND ( 'NONE', #130, .T. ) ;
#87 = FILL_AREA_STYLE_COLOUR ( '', #30 ) ;
#88 = TOROIDAL_SURFACE ( 'NONE', #72, 81.66500000000000600, 2.664999999999999100 ) ;
#89 = AXIS2_PLACEMENT_3D ( 'NONE', #4, #73, #58 ) ;
#90 = PRESENTATION_STYLE_ASSIGNMENT (( #49 ) ) ;
#91 = FACE_OUTER_BOUND ( 'NONE', #143, .T. ) ;
#92 = CARTESIAN_POINT ( 'NONE',  ( 0.0000000000000000000, 0.0000000000000000000, 0.0000000000000000000 ) ) ;
#93 = TOROIDAL_SURFACE ( 'NONE', #78, 81.66500000000000600, 2.664999999999999100 ) ;
#94 = DIRECTION ( 'NONE',  ( -1.000000000000000000, 0.0000000000000000000, 0.0000000000000000000 ) ) ;
#95 = CARTESIAN_POINT ( 'NONE',  ( -79.00000000000000000, 0.0000000000000000000, 3.263683719727692600E-016 ) ) ;
#96 =( NAMED_UNIT ( * ) SI_UNIT ( $, .STERADIAN. ) SOLID_ANGLE_UNIT ( ) );
#97 = FACE_OUTER_BOUND ( 'NONE', #152, .T. ) ;
#98 = ORIENTED_EDGE ( 'NONE', *, *, #18, .T. ) ;
#99 = ORIENTED_EDGE ( 'NONE', *, *, #79, .T. ) ;
#100 = APPLICATION_PROTOCOL_DEFINITION ( 'draft international standard', 'automotive_design', 1998, #117 ) ;
#101 = APPLICATION_CONTEXT ( 'automotive_design' ) ;
#102 = EDGE_CURVE ( 'NONE', #114, #131, #57, .T. ) ;
#103 = ORIENTED_EDGE ( 'NONE', *, *, #83, .F. ) ;
#104 = CIRCLE ( 'NONE', #6, 2.665000000000000900 ) ;
#105 = CIRCLE ( 'NONE', #142, 79.00000000000000000 ) ;
#106 = ADVANCED_BREP_SHAPE_REPRESENTATION ( '302DOR160-S1', ( #74, #128 ), #46 ) ;
#107 = ORIENTED_EDGE ( 'NONE', *, *, #40, .T. ) ;
#108 = DIRECTION ( 'NONE',  ( -1.000000000000000000, 0.0000000000000000000, 0.0000000000000000000 ) ) ;
#109 = EDGE_CURVE ( 'NONE', #131, #114, #27, .T. ) ;
#110 = VERTEX_POINT ( 'NONE', #95 ) ;
#111 = EDGE_CURVE ( 'NONE', #110, #81, #29, .T. ) ;
#112 = CARTESIAN_POINT ( 'NONE',  ( -81.66500000000000600, 0.0000000000000000000, 0.0000000000000000000 ) ) ;
#113 = DIRECTION ( 'NONE',  ( -0.0000000000000000000, -0.0000000000000000000, -1.000000000000000000 ) ) ;
#114 = VERTEX_POINT ( 'NONE', #10 ) ;
#115 = CARTESIAN_POINT ( 'NONE',  ( 0.0000000000000000000, 0.0000000000000000000, 0.0000000000000000000 ) ) ;
#116 = DIRECTION ( 'NONE',  ( -0.0000000000000000000, -0.0000000000000000000, -1.000000000000000000 ) ) ;
#117 = APPLICATION_CONTEXT ( 'automotive_design' ) ;
#118 = ORIENTED_EDGE ( 'NONE', *, *, #1, .T. ) ;
#119 = DIRECTION ( 'NONE',  ( -1.000000000000000000, 0.0000000000000000000, 0.0000000000000000000 ) ) ;
#120 = SURFACE_SIDE_STYLE ('',( #133 ) ) ;
#121 = ORIENTED_EDGE ( 'NONE', *, *, #102, .T. ) ;
#122 = ORIENTED_EDGE ( 'NONE', *, *, #111, .T. ) ;
#123 = DIRECTION ( 'NONE',  ( -1.000000000000000000, -1.224646799147351500E-016, 0.0000000000000000000 ) ) ;
#124 = ORIENTED_EDGE ( 'NONE', *, *, #40, .F. ) ;
#125 = AXIS2_PLACEMENT_3D ( 'NONE', #157, #67, #156 ) ;
#126 = ORIENTED_EDGE ( 'NONE', *, *, #83, .T. ) ;
#127 = CARTESIAN_POINT ( 'NONE',  ( 0.0000000000000000000, 0.0000000000000000000, 0.0000000000000000000 ) ) ;
#128 = AXIS2_PLACEMENT_3D ( 'NONE', #92, #5, #82 ) ;
#129 =( LENGTH_UNIT ( ) NAMED_UNIT ( * ) SI_UNIT ( .MILLI., .METRE. ) );
#130 = EDGE_LOOP ( 'NONE', ( #19, #64, #122, #118 ) ) ;
#131 = VERTEX_POINT ( 'NONE', #54 ) ;
#132 = SURFACE_SIDE_STYLE ('',( #62 ) ) ;
#133 = SURFACE_STYLE_FILL_AREA ( #7 ) ;
#134 = FILL_AREA_STYLE_COLOUR ( '', #146 ) ;
#135 = UNCERTAINTY_MEASURE_WITH_UNIT (LENGTH_MEASURE( 1.000000000000000100E-005 ), #70, 'distance_accuracy_value', 'NONE');
#136 = EDGE_LOOP ( 'NONE', ( #139, #158, #126, #55 ) ) ;
#137 = ORIENTED_EDGE ( 'NONE', *, *, #102, .F. ) ;
#138 = DIRECTION ( 'NONE',  ( -0.0000000000000000000, -0.0000000000000000000, -1.000000000000000000 ) ) ;
#139 = ORIENTED_EDGE ( 'NONE', *, *, #79, .F. ) ;
#140 =( LENGTH_UNIT ( ) NAMED_UNIT ( * ) SI_UNIT ( .MILLI., .METRE. ) );
#141 = PRODUCT ( '302DOR160-S1', '302DOR160-S1', '', ( #15 ) ) ;
#142 = AXIS2_PLACEMENT_3D ( 'NONE', #14, #12, #119 ) ;
#143 = EDGE_LOOP ( 'NONE', ( #103, #121, #99, #124 ) ) ;
#144 = DIRECTION ( 'NONE',  ( -1.224646799147353200E-016, 1.000000000000000000, 0.0000000000000000000 ) ) ;
#145 = SHAPE_DEFINITION_REPRESENTATION ( #47, #106 ) ;
#146 = COLOUR_RGB ( '',0.3843137254901960500, 0.3843137254901960500, 0.3843137254901960500 ) ;
#147 =( NAMED_UNIT ( * ) PLANE_ANGLE_UNIT ( ) SI_UNIT ( $, .RADIAN. ) );
#148 = AXIS2_PLACEMENT_3D ( 'NONE', #115, #153, #108 ) ;
#149 =( NAMED_UNIT ( * ) SI_UNIT ( $, .STERADIAN. ) SOLID_ANGLE_UNIT ( ) );
#150 = PRESENTATION_LAYER_ASSIGNMENT (  '', '', ( #53 ) ) ;
#151 = AXIS2_PLACEMENT_3D ( 'NONE', #112, #8, #45 ) ;
#152 = EDGE_LOOP ( 'NONE', ( #137, #155, #107, #98 ) ) ;
#153 = DIRECTION ( 'NONE',  ( -0.0000000000000000000, -0.0000000000000000000, -1.000000000000000000 ) ) ;
#154 = DIRECTION ( 'NONE',  ( -1.224646799147353200E-016, 1.000000000000000000, 0.0000000000000000000 ) ) ;
#155 = ORIENTED_EDGE ( 'NONE', *, *, #1, .F. ) ;
#156 = DIRECTION ( 'NONE',  ( -1.000000000000000000, 0.0000000000000000000, 0.0000000000000000000 ) ) ;
#157 = CARTESIAN_POINT ( 'NONE',  ( 0.0000000000000000000, 0.0000000000000000000, 0.0000000000000000000 ) ) ;
#158 = ORIENTED_EDGE ( 'NONE', *, *, #109, .T. ) ;
ENDSEC;
END-ISO-10303-21;
