ISO-10303-21;
HEADER;
FILE_DESCRIPTION (( 'STEP AP214' ),
    '1' );
FILE_NAME ('306DOR500-S1.step',
    '2017-07-07T05:01:56',
    ( 'install' ),
    ( '' ),
    'SwSTEP 2.0',
    'SolidWorks 2015',
    '' );
FILE_SCHEMA (( 'AUTOMOTIVE_DESIGN' ));
ENDSEC;

DATA;
#1 = DIRECTION ( 'NONE',  ( -0.0000000000000000000, -0.0000000000000000000, -1.000000000000000000 ) ) ;
#2 = SURFACE_STYLE_USAGE ( .BOTH. , #72 ) ;
#3 = DIRECTION ( 'NONE',  ( -0.0000000000000000000, -0.0000000000000000000, -1.000000000000000000 ) ) ;
#4 =( NAMED_UNIT ( * ) PLANE_ANGLE_UNIT ( ) SI_UNIT ( $, .RADIAN. ) );
#5 = VERTEX_POINT ( 'NONE', #45 ) ;
#6 = AXIS2_PLACEMENT_3D ( 'NONE', #32, #1, #98 ) ;
#7 = TOROIDAL_SURFACE ( 'NONE', #6, 257.0000000000000000, 3.500000000000002700 ) ;
#8 = ORIENTED_EDGE ( 'NONE', *, *, #151, .T. ) ;
#9 = VERTEX_POINT ( 'NONE', #99 ) ;
#10 = CIRCLE ( 'NONE', #42, 260.5000000000000000 ) ;
#11 = ORIENTED_EDGE ( 'NONE', *, *, #149, .F. ) ;
#12 = DIRECTION ( 'NONE',  ( 0.0000000000000000000, 0.0000000000000000000, -1.000000000000000000 ) ) ;
#13 = CARTESIAN_POINT ( 'NONE',  ( 0.0000000000000000000, 0.0000000000000000000, 0.0000000000000000000 ) ) ;
#14 = AXIS2_PLACEMENT_3D ( 'NONE', #13, #21, #55 ) ;
#15 =( NAMED_UNIT ( * ) PLANE_ANGLE_UNIT ( ) SI_UNIT ( $, .RADIAN. ) );
#16 =( LENGTH_UNIT ( ) NAMED_UNIT ( * ) SI_UNIT ( .MILLI., .METRE. ) );
#17 = AXIS2_PLACEMENT_3D ( 'NONE', #59, #103, #25 ) ;
#18 = PRESENTATION_STYLE_ASSIGNMENT (( #2 ) ) ;
#19 = MECHANICAL_DESIGN_GEOMETRIC_PRESENTATION_REPRESENTATION (  '', ( #94 ), #140 ) ;
#20 = FACE_OUTER_BOUND ( 'NONE', #128, .T. ) ;
#21 = DIRECTION ( 'NONE',  ( -0.0000000000000000000, -0.0000000000000000000, -1.000000000000000000 ) ) ;
#22 = SHAPE_DEFINITION_REPRESENTATION ( #50, #38 ) ;
#23 = DIRECTION ( 'NONE',  ( -1.000000000000000000, 0.0000000000000000000, 0.0000000000000000000 ) ) ;
#24 =( NAMED_UNIT ( * ) SI_UNIT ( $, .STERADIAN. ) SOLID_ANGLE_UNIT ( ) );
#25 = DIRECTION ( 'NONE',  ( 1.000000000000000000, 0.0000000000000000000, 0.0000000000000000000 ) ) ;
#26 = ORIENTED_EDGE ( 'NONE', *, *, #151, .F. ) ;
#27 = AXIS2_PLACEMENT_3D ( 'NONE', #125, #46, #137 ) ;
#28 = ORIENTED_EDGE ( 'NONE', *, *, #77, .T. ) ;
#29 = DIRECTION ( 'NONE',  ( -1.000000000000000000, 0.0000000000000000000, 0.0000000000000000000 ) ) ;
#30 = VERTEX_POINT ( 'NONE', #136 ) ;
#31 = CARTESIAN_POINT ( 'NONE',  ( 257.0000000000000000, 3.147342273808697700E-014, 0.0000000000000000000 ) ) ;
#32 = CARTESIAN_POINT ( 'NONE',  ( 0.0000000000000000000, 0.0000000000000000000, 0.0000000000000000000 ) ) ;
#33 = AXIS2_PLACEMENT_3D ( 'NONE', #134, #158, #81 ) ;
#34 = FILL_AREA_STYLE_COLOUR ( '', #82 ) ;
#35 = TOROIDAL_SURFACE ( 'NONE', #14, 257.0000000000000000, 3.500000000000002700 ) ;
#36 = APPLICATION_PROTOCOL_DEFINITION ( 'draft international standard', 'automotive_design', 1998, #47 ) ;
#37 = ADVANCED_FACE ( 'NONE', ( #20 ), #110, .T. ) ;
#38 = ADVANCED_BREP_SHAPE_REPRESENTATION ( '306DOR500-S1', ( #52, #17 ), #142 ) ;
#39 = APPLICATION_CONTEXT ( 'automotive_design' ) ;
#40 = CLOSED_SHELL ( 'NONE', ( #88, #104, #145, #37 ) ) ;
#41 = CIRCLE ( 'NONE', #57, 3.500000000000003100 ) ;
#42 = AXIS2_PLACEMENT_3D ( 'NONE', #123, #44, #135 ) ;
#43 = DIRECTION ( 'NONE',  ( -1.000000000000000000, -1.224646799147349500E-016, 0.0000000000000000000 ) ) ;
#44 = DIRECTION ( 'NONE',  ( -0.0000000000000000000, -0.0000000000000000000, -1.000000000000000000 ) ) ;
#45 = CARTESIAN_POINT ( 'NONE',  ( -253.5000000000000000, 0.0000000000000000000, 4.286263797015739100E-016 ) ) ;
#46 = DIRECTION ( 'NONE',  ( 0.0000000000000000000, -1.000000000000000000, 0.0000000000000000000 ) ) ;
#47 = APPLICATION_CONTEXT ( 'automotive_design' ) ;
#48 = CARTESIAN_POINT ( 'NONE',  ( 0.0000000000000000000, 0.0000000000000000000, 4.286263797015739600E-016 ) ) ;
#49 = SURFACE_STYLE_FILL_AREA ( #143 ) ;
#50 = PRODUCT_DEFINITION_SHAPE ( 'NONE', 'NONE',  #131 ) ;
#51 = CIRCLE ( 'NONE', #65, 3.500000000000003100 ) ;
#52 = MANIFOLD_SOLID_BREP ( 'Rotation1', #40 ) ;
#53 = ORIENTED_EDGE ( 'NONE', *, *, #78, .T. ) ;
#54 = CARTESIAN_POINT ( 'NONE',  ( 257.0000000000000000, 3.147342273808697700E-014, 0.0000000000000000000 ) ) ;
#55 = DIRECTION ( 'NONE',  ( -1.000000000000000000, 0.0000000000000000000, 0.0000000000000000000 ) ) ;
#56 = UNCERTAINTY_MEASURE_WITH_UNIT (LENGTH_MEASURE( 1.000000000000000100E-005 ), #75, 'distance_accuracy_value', 'NONE');
#57 = AXIS2_PLACEMENT_3D ( 'NONE', #54, #141, #70 ) ;
#58 = CARTESIAN_POINT ( 'NONE',  ( -260.5000000000000000, 0.0000000000000000000, 0.0000000000000000000 ) ) ;
#59 = CARTESIAN_POINT ( 'NONE',  ( 0.0000000000000000000, 0.0000000000000000000, 0.0000000000000000000 ) ) ;
#60 = SURFACE_SIDE_STYLE ('',( #119 ) ) ;
#61 = ORIENTED_EDGE ( 'NONE', *, *, #69, .T. ) ;
#62 = AXIS2_PLACEMENT_3D ( 'NONE', #113, #111, #74 ) ;
#63 = CIRCLE ( 'NONE', #153, 260.5000000000000000 ) ;
#64 = VERTEX_POINT ( 'NONE', #58 ) ;
#65 = AXIS2_PLACEMENT_3D ( 'NONE', #31, #120, #43 ) ;
#66 = EDGE_CURVE ( 'NONE', #30, #5, #117, .T. ) ;
#67 = FACE_OUTER_BOUND ( 'NONE', #79, .T. ) ;
#68 = ORIENTED_EDGE ( 'NONE', *, *, #95, .F. ) ;
#69 = EDGE_CURVE ( 'NONE', #5, #30, #147, .T. ) ;
#70 = DIRECTION ( 'NONE',  ( -1.000000000000000000, -1.224646799147349500E-016, 0.0000000000000000000 ) ) ;
#71 = FACE_OUTER_BOUND ( 'NONE', #96, .T. ) ;
#72 = SURFACE_SIDE_STYLE ('',( #49 ) ) ;
#73 = CARTESIAN_POINT ( 'NONE',  ( 0.0000000000000000000, 0.0000000000000000000, 0.0000000000000000000 ) ) ;
#74 = DIRECTION ( 'NONE',  ( -1.000000000000000000, 0.0000000000000000000, 0.0000000000000000000 ) ) ;
#75 =( LENGTH_UNIT ( ) NAMED_UNIT ( * ) SI_UNIT ( .MILLI., .METRE. ) );
#76 = AXIS2_PLACEMENT_3D ( 'NONE', #156, #80, #12 ) ;
#77 = EDGE_CURVE ( 'NONE', #64, #5, #108, .T. ) ;
#78 = EDGE_CURVE ( 'NONE', #30, #9, #51, .T. ) ;
#79 = EDGE_LOOP ( 'NONE', ( #152, #8, #105, #157 ) ) ;
#80 = DIRECTION ( 'NONE',  ( 0.0000000000000000000, -1.000000000000000000, 0.0000000000000000000 ) ) ;
#81 = DIRECTION ( 'NONE',  ( -1.000000000000000000, 0.0000000000000000000, 0.0000000000000000000 ) ) ;
#82 = COLOUR_RGB ( '',0.3843137254901960500, 0.3843137254901960500, 0.3843137254901960500 ) ;
#83 = CARTESIAN_POINT ( 'NONE',  ( 0.0000000000000000000, 0.0000000000000000000, 0.0000000000000000000 ) ) ;
#84 = AXIS2_PLACEMENT_3D ( 'NONE', #48, #106, #29 ) ;
#85 =( LENGTH_UNIT ( ) NAMED_UNIT ( * ) SI_UNIT ( .MILLI., .METRE. ) );
#86 = EDGE_CURVE ( 'NONE', #9, #30, #41, .T. ) ;
#87 = DIRECTION ( 'NONE',  ( -1.000000000000000000, 0.0000000000000000000, 0.0000000000000000000 ) ) ;
#88 = ADVANCED_FACE ( 'NONE', ( #71 ), #138, .T. ) ;
#89 =( NAMED_UNIT ( * ) SI_UNIT ( $, .STERADIAN. ) SOLID_ANGLE_UNIT ( ) );
#90 = PRESENTATION_STYLE_ASSIGNMENT (( #146 ) ) ;
#91 = AXIS2_PLACEMENT_3D ( 'NONE', #83, #109, #23 ) ;
#92 = ORIENTED_EDGE ( 'NONE', *, *, #86, .F. ) ;
#93 = ORIENTED_EDGE ( 'NONE', *, *, #66, .T. ) ;
#94 = STYLED_ITEM ( 'NONE', ( #90 ), #38 ) ;
#95 = EDGE_CURVE ( 'NONE', #9, #64, #10, .T. ) ;
#96 = EDGE_LOOP ( 'NONE', ( #92, #130, #28, #148 ) ) ;
#97 = STYLED_ITEM ( 'NONE', ( #18 ), #52 ) ;
#98 = DIRECTION ( 'NONE',  ( -1.000000000000000000, 0.0000000000000000000, 0.0000000000000000000 ) ) ;
#99 = CARTESIAN_POINT ( 'NONE',  ( 260.5000000000000000, 3.190204911778855000E-014, 0.0000000000000000000 ) ) ;
#100 =( NAMED_UNIT ( * ) SI_UNIT ( $, .STERADIAN. ) SOLID_ANGLE_UNIT ( ) );
#101 =( NAMED_UNIT ( * ) PLANE_ANGLE_UNIT ( ) SI_UNIT ( $, .RADIAN. ) );
#102 = CIRCLE ( 'NONE', #27, 3.500000000000002700 ) ;
#103 = DIRECTION ( 'NONE',  ( 0.0000000000000000000, 0.0000000000000000000, 1.000000000000000000 ) ) ;
#104 = ADVANCED_FACE ( 'NONE', ( #67 ), #35, .T. ) ;
#105 = ORIENTED_EDGE ( 'NONE', *, *, #86, .T. ) ;
#106 = DIRECTION ( 'NONE',  ( -0.0000000000000000000, -0.0000000000000000000, -1.000000000000000000 ) ) ;
#107 = PRESENTATION_LAYER_ASSIGNMENT (  '', '', ( #97 ) ) ;
#108 = CIRCLE ( 'NONE', #76, 3.500000000000002700 ) ;
#109 = DIRECTION ( 'NONE',  ( -0.0000000000000000000, -0.0000000000000000000, -1.000000000000000000 ) ) ;
#110 = TOROIDAL_SURFACE ( 'NONE', #91, 257.0000000000000000, 3.500000000000002700 ) ;
#111 = DIRECTION ( 'NONE',  ( -0.0000000000000000000, -0.0000000000000000000, -1.000000000000000000 ) ) ;
#112 = PRODUCT_CONTEXT ( 'NONE', #47, 'mechanical' ) ;
#113 = CARTESIAN_POINT ( 'NONE',  ( 0.0000000000000000000, 0.0000000000000000000, 4.286263797015739600E-016 ) ) ;
#114 = MECHANICAL_DESIGN_GEOMETRIC_PRESENTATION_REPRESENTATION (  '', ( #97 ), #122 ) ;
#115 = EDGE_LOOP ( 'NONE', ( #26, #11, #61, #53 ) ) ;
#116 = PRODUCT_RELATED_PRODUCT_CATEGORY ( 'part', '', ( #118 ) ) ;
#117 = CIRCLE ( 'NONE', #62, 253.5000000000000000 ) ;
#118 = PRODUCT ( '306DOR500-S1', '306DOR500-S1', '', ( #112 ) ) ;
#119 = SURFACE_STYLE_FILL_AREA ( #139 ) ;
#120 = DIRECTION ( 'NONE',  ( -1.224646799147353200E-016, 1.000000000000000000, 0.0000000000000000000 ) ) ;
#121 = ORIENTED_EDGE ( 'NONE', *, *, #149, .T. ) ;
#122 =( GEOMETRIC_REPRESENTATION_CONTEXT ( 3 ) GLOBAL_UNCERTAINTY_ASSIGNED_CONTEXT ( ( #129 ) ) GLOBAL_UNIT_ASSIGNED_CONTEXT ( ( #85, #15, #100 ) ) REPRESENTATION_CONTEXT ( 'NONE', 'WORKASPACE' ) );
#123 = CARTESIAN_POINT ( 'NONE',  ( 0.0000000000000000000, 0.0000000000000000000, 0.0000000000000000000 ) ) ;
#124 = PRODUCT_DEFINITION_CONTEXT ( 'detailed design', #39, 'design' ) ;
#125 = CARTESIAN_POINT ( 'NONE',  ( -257.0000000000000000, 0.0000000000000000000, 0.0000000000000000000 ) ) ;
#126 = PRODUCT_DEFINITION_FORMATION_WITH_SPECIFIED_SOURCE ( 'ANY', '', #118, .NOT_KNOWN. ) ;
#127 = APPLICATION_PROTOCOL_DEFINITION ( 'draft international standard', 'automotive_design', 1998, #39 ) ;
#128 = EDGE_LOOP ( 'NONE', ( #68, #133, #93, #121 ) ) ;
#129 = UNCERTAINTY_MEASURE_WITH_UNIT (LENGTH_MEASURE( 1.000000000000000100E-005 ), #85, 'distance_accuracy_value', 'NONE');
#130 = ORIENTED_EDGE ( 'NONE', *, *, #95, .T. ) ;
#131 = PRODUCT_DEFINITION ( 'UNKNOWN', '', #126, #124 ) ;
#132 = FACE_OUTER_BOUND ( 'NONE', #115, .T. ) ;
#133 = ORIENTED_EDGE ( 'NONE', *, *, #78, .F. ) ;
#134 = CARTESIAN_POINT ( 'NONE',  ( 0.0000000000000000000, 0.0000000000000000000, 0.0000000000000000000 ) ) ;
#135 = DIRECTION ( 'NONE',  ( -1.000000000000000000, 0.0000000000000000000, 0.0000000000000000000 ) ) ;
#136 = CARTESIAN_POINT ( 'NONE',  ( 253.5000000000000000, 3.104479635838540400E-014, 0.0000000000000000000 ) ) ;
#137 = DIRECTION ( 'NONE',  ( 0.0000000000000000000, 0.0000000000000000000, -1.000000000000000000 ) ) ;
#138 = TOROIDAL_SURFACE ( 'NONE', #33, 257.0000000000000000, 3.500000000000002700 ) ;
#139 = FILL_AREA_STYLE ('',( #144 ) ) ;
#140 =( GEOMETRIC_REPRESENTATION_CONTEXT ( 3 ) GLOBAL_UNCERTAINTY_ASSIGNED_CONTEXT ( ( #56 ) ) GLOBAL_UNIT_ASSIGNED_CONTEXT ( ( #75, #4, #89 ) ) REPRESENTATION_CONTEXT ( 'NONE', 'WORKASPACE' ) );
#141 = DIRECTION ( 'NONE',  ( -1.224646799147353200E-016, 1.000000000000000000, 0.0000000000000000000 ) ) ;
#142 =( GEOMETRIC_REPRESENTATION_CONTEXT ( 3 ) GLOBAL_UNCERTAINTY_ASSIGNED_CONTEXT ( ( #155 ) ) GLOBAL_UNIT_ASSIGNED_CONTEXT ( ( #16, #101, #24 ) ) REPRESENTATION_CONTEXT ( 'NONE', 'WORKASPACE' ) );
#143 = FILL_AREA_STYLE ('',( #34 ) ) ;
#144 = FILL_AREA_STYLE_COLOUR ( '', #150 ) ;
#145 = ADVANCED_FACE ( 'NONE', ( #132 ), #7, .T. ) ;
#146 = SURFACE_STYLE_USAGE ( .BOTH. , #60 ) ;
#147 = CIRCLE ( 'NONE', #84, 253.5000000000000000 ) ;
#148 = ORIENTED_EDGE ( 'NONE', *, *, #66, .F. ) ;
#149 = EDGE_CURVE ( 'NONE', #5, #64, #102, .T. ) ;
#150 = COLOUR_RGB ( '',0.3843137254901960500, 0.3843137254901960500, 0.3843137254901960500 ) ;
#151 = EDGE_CURVE ( 'NONE', #64, #9, #63, .T. ) ;
#152 = ORIENTED_EDGE ( 'NONE', *, *, #77, .F. ) ;
#153 = AXIS2_PLACEMENT_3D ( 'NONE', #73, #3, #87 ) ;
#154 = PRESENTATION_LAYER_ASSIGNMENT (  '', '', ( #94 ) ) ;
#155 = UNCERTAINTY_MEASURE_WITH_UNIT (LENGTH_MEASURE( 1.000000000000000100E-005 ), #16, 'distance_accuracy_value', 'NONE');
#156 = CARTESIAN_POINT ( 'NONE',  ( -257.0000000000000000, 0.0000000000000000000, 0.0000000000000000000 ) ) ;
#157 = ORIENTED_EDGE ( 'NONE', *, *, #69, .F. ) ;
#158 = DIRECTION ( 'NONE',  ( -0.0000000000000000000, -0.0000000000000000000, -1.000000000000000000 ) ) ;
ENDSEC;
END-ISO-10303-21;
