ISO-10303-21;
HEADER;
/****************************************************************
 * Generated by software with PDE/Lib inside                    *
 * PDE/Lib Version 3.2.6, created Mon Nov 19, 2001 at 18:43:38  *
 * International Technegroup Inc. (www.iti-oh.com)              *
 ****************************************************************/
FILE_DESCRIPTION((''),'2;1');
FILE_NAME('W:\\211-185.stp','2003-10-08T16:08:10',('KAA'),(''),'Autodesk Inventor (R) 6.0','Autodesk Inventor (R) 6.0','');
FILE_SCHEMA(('CONFIG_CONTROL_DESIGN'));
ENDSEC;
DATA;
#5=APPLICATION_CONTEXT('configuration controlled 3D designs of mechanical parts and assemblies');
#6=APPLICATION_PROTOCOL_DEFINITION('International Standard','config_control_design',1995,#5);
#7=MECHANICAL_CONTEXT('None',#5,'mechanical');
#8=PRODUCT('211-185','211-185','None',(#7));
#9=PRODUCT_RELATED_PRODUCT_CATEGORY('detail',$,(#8));
#10=PRODUCT_CATEGORY('part',$);
#11=PRODUCT_CATEGORY_RELATIONSHIP('None','None',#10,#9);
#12=PERSON('PERSON1','None','None',$,$,$);
#13=ORGANIZATION('','None','None');
#14=PERSON_AND_ORGANIZATION(#12,#13);
#15=PERSON_AND_ORGANIZATION_ROLE('design_owner');
#16=CC_DESIGN_PERSON_AND_ORGANIZATION_ASSIGNMENT(#14,#15,(#8));
#17=PRODUCT_DEFINITION_FORMATION_WITH_SPECIFIED_SOURCE('None','None',#8,.NOT_KNOWN.);
#18=PERSON('PERSON2','None','None',$,$,$);
#19=ORGANIZATION('','None','None');
#20=PERSON_AND_ORGANIZATION(#18,#19);
#21=PERSON_AND_ORGANIZATION_ROLE('creator');
#22=CC_DESIGN_PERSON_AND_ORGANIZATION_ASSIGNMENT(#20,#21,(#17));
#23=PERSON('PERSON3','None','None',$,$,$);
#24=ORGANIZATION('','None','None');
#25=PERSON_AND_ORGANIZATION(#23,#24);
#26=PERSON_AND_ORGANIZATION_ROLE('part_supplier');
#27=CC_DESIGN_PERSON_AND_ORGANIZATION_ASSIGNMENT(#25,#26,(#17));
#28=APPROVAL_STATUS('approved');
#29=APPROVAL(#28,'None');
#30=PERSON('PERSON4','None','None',$,$,$);
#31=ORGANIZATION('','None','None');
#32=PERSON_AND_ORGANIZATION(#30,#31);
#33=APPROVAL_ROLE('None');
#34=APPROVAL_PERSON_ORGANIZATION(#32,#29,#33);
#35=CALENDAR_DATE(2003,8,10);
#36=COORDINATED_UNIVERSAL_TIME_OFFSET(0,0,.AHEAD.);
#37=LOCAL_TIME(16,8,10.0,#36);
#38=DATE_AND_TIME(#35,#37);
#39=APPROVAL_DATE_TIME(#38,#29);
#40=CC_DESIGN_APPROVAL(#29,(#17));
#41=SECURITY_CLASSIFICATION_LEVEL('unclassified');
#42=SECURITY_CLASSIFICATION('None','None',#41);
#43=CC_DESIGN_SECURITY_CLASSIFICATION(#42,(#17));
#44=APPROVAL_STATUS('approved');
#45=APPROVAL(#44,'None');
#46=PERSON('PERSON5','None','None',$,$,$);
#47=ORGANIZATION('','None','None');
#48=PERSON_AND_ORGANIZATION(#46,#47);
#49=APPROVAL_ROLE('None');
#50=APPROVAL_PERSON_ORGANIZATION(#48,#45,#49);
#51=CALENDAR_DATE(2003,8,10);
#52=COORDINATED_UNIVERSAL_TIME_OFFSET(0,0,.AHEAD.);
#53=LOCAL_TIME(16,8,10.0,#52);
#54=DATE_AND_TIME(#51,#53);
#55=APPROVAL_DATE_TIME(#54,#45);
#56=CC_DESIGN_APPROVAL(#45,(#42));
#57=PERSON('PERSON6','None','None',$,$,$);
#58=ORGANIZATION('','None','None');
#59=PERSON_AND_ORGANIZATION(#57,#58);
#60=PERSON_AND_ORGANIZATION_ROLE('classification_officer');
#61=CC_DESIGN_PERSON_AND_ORGANIZATION_ASSIGNMENT(#59,#60,(#42));
#62=DATE_TIME_ROLE('classification_date');
#63=CALENDAR_DATE(2003,8,10);
#64=COORDINATED_UNIVERSAL_TIME_OFFSET(0,0,.AHEAD.);
#65=LOCAL_TIME(16,8,10.0,#64);
#66=DATE_AND_TIME(#63,#65);
#67=CC_DESIGN_DATE_AND_TIME_ASSIGNMENT(#66,#62,(#42));
#68=DESIGN_CONTEXT('part definition',#5,'design');
#69=PRODUCT_DEFINITION('None','None',#17,#68);
#70=PERSON('PERSON7','None','None',$,$,$);
#71=ORGANIZATION('','None','None');
#72=PERSON_AND_ORGANIZATION(#70,#71);
#73=PERSON_AND_ORGANIZATION_ROLE('creator');
#74=CC_DESIGN_PERSON_AND_ORGANIZATION_ASSIGNMENT(#72,#73,(#69));
#75=DATE_TIME_ROLE('creation_date');
#76=CALENDAR_DATE(2003,8,10);
#77=COORDINATED_UNIVERSAL_TIME_OFFSET(0,0,.AHEAD.);
#78=LOCAL_TIME(16,8,10.0,#77);
#79=DATE_AND_TIME(#76,#78);
#80=CC_DESIGN_DATE_AND_TIME_ASSIGNMENT(#79,#75,(#69));
#81=APPROVAL_STATUS('approved');
#82=APPROVAL(#81,'None');
#83=PERSON('PERSON8','None','None',$,$,$);
#84=ORGANIZATION('','None','None');
#85=PERSON_AND_ORGANIZATION(#83,#84);
#86=APPROVAL_ROLE('None');
#87=APPROVAL_PERSON_ORGANIZATION(#85,#82,#86);
#88=CALENDAR_DATE(2003,8,10);
#89=COORDINATED_UNIVERSAL_TIME_OFFSET(0,0,.AHEAD.);
#90=LOCAL_TIME(16,8,10.0,#89);
#91=DATE_AND_TIME(#88,#90);
#92=APPROVAL_DATE_TIME(#91,#82);
#93=CC_DESIGN_APPROVAL(#82,(#69));
#99=(NAMED_UNIT(*)PLANE_ANGLE_UNIT()SI_UNIT($,.RADIAN.));
#100=DIMENSIONAL_EXPONENTS(0.0,0.0,0.0,0.0,0.0,0.0,0.0);
#101=PLANE_ANGLE_MEASURE_WITH_UNIT(PLANE_ANGLE_MEASURE(0.017453292500000),#99);
#105=(CONVERSION_BASED_UNIT('DEGREE',#101)NAMED_UNIT(#100)PLANE_ANGLE_UNIT());
#109=(NAMED_UNIT(*)SI_UNIT($,.STERADIAN.)SOLID_ANGLE_UNIT());
#113=(LENGTH_UNIT()NAMED_UNIT(*)SI_UNIT(.MILLI.,.METRE.));
#115=UNCERTAINTY_MEASURE_WITH_UNIT(LENGTH_MEASURE(0.000001000000000),#113,'DISTANCE_ACCURACY_VALUE','');
#117=(GEOMETRIC_REPRESENTATION_CONTEXT(3)GLOBAL_UNCERTAINTY_ASSIGNED_CONTEXT((#115))GLOBAL_UNIT_ASSIGNED_CONTEXT((#105,#109,#113))REPRESENTATION_CONTEXT('None','None'));
#118=AXIS2_PLACEMENT_3D('',#119,#120,#121);
#119=CARTESIAN_POINT('',(0.0,0.0,0.0));
#120=DIRECTION('',(0.0,0.0,1.0));
#121=DIRECTION('',(1.0,0.0,0.0));
#122=SHAPE_REPRESENTATION('',(#118),#117);
#123=PRODUCT_DEFINITION_SHAPE('','',#69);
#124=SHAPE_DEFINITION_REPRESENTATION(#123,#122);
#125=CARTESIAN_POINT('',(-1.249999999999993,-3.826895E-016,0.0));
#126=DIRECTION('',(1.0,3.061516E-016,0.0));
#127=DIRECTION('',(0.0,1.0,0.0));
#128=AXIS2_PLACEMENT_3D('',#125,#126,#127);
#129=CYLINDRICAL_SURFACE('',#128,22.600000000000001);
#130=CARTESIAN_POINT('',(-2.500000000000000,22.600000000000001,0.0));
#131=VERTEX_POINT('',#130);
#132=CARTESIAN_POINT('',(0.0,22.600000000000001,0.0));
#133=VERTEX_POINT('',#132);
#134=CARTESIAN_POINT('',(-2.500000000000000,22.600000000000001,0.0));
#135=DIRECTION('',(1.0,0.0,0.0));
#136=VECTOR('',#135,2.500000000000000);
#137=LINE('',#134,#136);
#138=EDGE_CURVE('',#131,#133,#137,.T.);
#139=ORIENTED_EDGE('',*,*,#138,.F.);
#140=CARTESIAN_POINT('',(-2.499999999999986,-22.600000000000001,2.767610E-015));
#141=VERTEX_POINT('',#140);
#142=CARTESIAN_POINT('',(-2.499999999999993,-7.653790E-016,0.0));
#143=DIRECTION('',(1.0,0.0,0.0));
#144=DIRECTION('',(0.0,1.0,0.0));
#145=AXIS2_PLACEMENT_3D('',#142,#143,#144);
#146=CIRCLE('',#145,22.600000000000001);
#147=EDGE_CURVE('',#131,#141,#146,.T.);
#148=ORIENTED_EDGE('',*,*,#147,.T.);
#149=CARTESIAN_POINT('',(1.380241E-014,-22.600000000000001,2.767610E-015));
#150=VERTEX_POINT('',#149);
#151=CARTESIAN_POINT('',(1.380241E-014,-22.600000000000001,2.767610E-015));
#152=DIRECTION('',(-1.0,0.0,0.0));
#153=VECTOR('',#152,2.500000000000000);
#154=LINE('',#151,#153);
#155=EDGE_CURVE('',#150,#141,#154,.T.);
#156=ORIENTED_EDGE('',*,*,#155,.F.);
#157=CARTESIAN_POINT('',(6.919026E-015,1.871752E-030,0.0));
#158=DIRECTION('',(1.0,0.0,0.0));
#159=DIRECTION('',(0.0,1.0,0.0));
#160=AXIS2_PLACEMENT_3D('',#157,#158,#159);
#161=CIRCLE('',#160,22.600000000000001);
#162=EDGE_CURVE('',#133,#150,#161,.T.);
#163=ORIENTED_EDGE('',*,*,#162,.F.);
#164=EDGE_LOOP('',(#139,#148,#156,#163));
#165=FACE_OUTER_BOUND('',#164,.T.);
#166=ADVANCED_FACE('',(#165),#129,.T.);
#167=CARTESIAN_POINT('',(-1.249999999999992,-3.826895E-016,0.0));
#168=DIRECTION('',(1.0,3.061516E-016,0.0));
#169=DIRECTION('',(0.0,1.0,0.0));
#170=AXIS2_PLACEMENT_3D('',#167,#168,#169);
#171=CYLINDRICAL_SURFACE('',#170,26.099999999999998);
#172=CARTESIAN_POINT('',(-2.500000000000000,26.099999999999998,0.0));
#173=VERTEX_POINT('',#172);
#174=CARTESIAN_POINT('',(0.0,26.099999999999998,0.0));
#175=VERTEX_POINT('',#174);
#176=CARTESIAN_POINT('',(-2.500000000000000,26.099999999999998,0.0));
#177=DIRECTION('',(1.0,0.0,0.0));
#178=VECTOR('',#177,2.500000000000000);
#179=LINE('',#176,#178);
#180=EDGE_CURVE('',#173,#175,#179,.T.);
#181=ORIENTED_EDGE('',*,*,#180,.F.);
#182=CARTESIAN_POINT('',(-2.499999999999984,-26.099999999999998,3.196223E-015));
#183=VERTEX_POINT('',#182);
#184=CARTESIAN_POINT('',(-2.499999999999992,-7.653790E-016,0.0));
#185=DIRECTION('',(1.0,0.0,0.0));
#186=DIRECTION('',(0.0,1.0,0.0));
#187=AXIS2_PLACEMENT_3D('',#184,#185,#186);
#188=CIRCLE('',#187,26.099999999999998);
#189=EDGE_CURVE('',#183,#173,#188,.T.);
#190=ORIENTED_EDGE('',*,*,#189,.F.);
#191=CARTESIAN_POINT('',(1.598416E-014,-26.099999999999998,3.196223E-015));
#192=VERTEX_POINT('',#191);
#193=CARTESIAN_POINT('',(1.598416E-014,-26.099999999999998,3.196223E-015));
#194=DIRECTION('',(-1.0,0.0,0.0));
#195=VECTOR('',#194,2.500000000000000);
#196=LINE('',#193,#195);
#197=EDGE_CURVE('',#192,#183,#196,.T.);
#198=ORIENTED_EDGE('',*,*,#197,.F.);
#199=CARTESIAN_POINT('',(7.990556E-015,2.199803E-030,0.0));
#200=DIRECTION('',(1.0,0.0,0.0));
#201=DIRECTION('',(0.0,1.0,0.0));
#202=AXIS2_PLACEMENT_3D('',#199,#200,#201);
#203=CIRCLE('',#202,26.099999999999998);
#204=EDGE_CURVE('',#192,#175,#203,.T.);
#205=ORIENTED_EDGE('',*,*,#204,.T.);
#206=EDGE_LOOP('',(#181,#190,#198,#205));
#207=FACE_OUTER_BOUND('',#206,.T.);
#208=ADVANCED_FACE('',(#207),#171,.F.);
#209=CARTESIAN_POINT('',(-1.499999999999989,-4.592274E-016,0.0));
#210=DIRECTION('',(1.0,3.061516E-016,0.0));
#211=DIRECTION('',(0.0,1.0,0.0));
#212=AXIS2_PLACEMENT_3D('',#209,#210,#211);
#213=CYLINDRICAL_SURFACE('',#212,37.500000000000000);
#214=CARTESIAN_POINT('',(-2.232673012021040,37.500000000000000,0.0));
#215=VERTEX_POINT('',#214);
#216=CARTESIAN_POINT('',(0.0,37.500000000000000,0.0));
#217=VERTEX_POINT('',#216);
#218=CARTESIAN_POINT('',(-2.232673012021040,37.500000000000000,0.0));
#219=DIRECTION('',(1.0,0.0,0.0));
#220=VECTOR('',#219,2.232673012021040);
#221=LINE('',#218,#220);
#222=EDGE_CURVE('',#215,#217,#221,.T.);
#223=ORIENTED_EDGE('',*,*,#222,.F.);
#224=CARTESIAN_POINT('',(-2.232673012021028,3.908737E-015,37.500000000000000));
#225=VERTEX_POINT('',#224);
#226=CARTESIAN_POINT('',(-2.232673012021028,-6.835364E-016,0.0));
#227=DIRECTION('',(-1.0,0.0,0.0));
#228=DIRECTION('',(0.0,-1.0,0.0));
#229=AXIS2_PLACEMENT_3D('',#226,#227,#228);
#230=CIRCLE('',#229,37.500000000000000);
#231=EDGE_CURVE('',#225,#215,#230,.T.);
#232=ORIENTED_EDGE('',*,*,#231,.F.);
#233=CARTESIAN_POINT('',(-2.232673012021017,-37.500000000000000,4.592274E-015));
#234=VERTEX_POINT('',#233);
#235=CARTESIAN_POINT('',(-2.232673012021028,-6.835364E-016,0.0));
#236=DIRECTION('',(-1.0,0.0,0.0));
#237=DIRECTION('',(0.0,-1.0,0.0));
#238=AXIS2_PLACEMENT_3D('',#235,#236,#237);
#239=CIRCLE('',#238,37.500000000000000);
#240=EDGE_CURVE('',#234,#225,#239,.T.);
#241=ORIENTED_EDGE('',*,*,#240,.F.);
#242=CARTESIAN_POINT('',(2.302700E-014,-37.500000000000000,4.592274E-015));
#243=VERTEX_POINT('',#242);
#244=CARTESIAN_POINT('',(2.302700E-014,-37.500000000000000,4.592274E-015));
#245=DIRECTION('',(-1.0,0.0,0.0));
#246=VECTOR('',#245,2.232673012021040);
#247=LINE('',#244,#246);
#248=EDGE_CURVE('',#243,#234,#247,.T.);
#249=ORIENTED_EDGE('',*,*,#248,.F.);
#250=CARTESIAN_POINT('',(1.148068E-014,3.268311E-030,0.0));
#251=DIRECTION('',(1.0,0.0,0.0));
#252=DIRECTION('',(0.0,1.0,0.0));
#253=AXIS2_PLACEMENT_3D('',#250,#251,#252);
#254=CIRCLE('',#253,37.500000000000000);
#255=EDGE_CURVE('',#217,#243,#254,.T.);
#256=ORIENTED_EDGE('',*,*,#255,.F.);
#257=EDGE_LOOP('',(#223,#232,#241,#249,#256));
#258=FACE_OUTER_BOUND('',#257,.T.);
#259=ADVANCED_FACE('',(#258),#213,.T.);
#260=CARTESIAN_POINT('',(-4.499999999999995,-1.377682E-015,0.0));
#261=DIRECTION('',(1.0,3.061516E-016,0.0));
#262=DIRECTION('',(0.0,1.0,0.0));
#263=AXIS2_PLACEMENT_3D('',#260,#261,#262);
#264=CONICAL_SURFACE('',#263,31.901923788646673,74.999999999999972);
#265=CARTESIAN_POINT('',(-6.000000000000010,26.303847577293343,0.0));
#266=VERTEX_POINT('',#265);
#267=CARTESIAN_POINT('',(-3.198598838310098,36.758819045102520,0.0));
#268=VERTEX_POINT('',#267);
#269=CARTESIAN_POINT('',(-6.000000000000010,26.303847577293343,0.0));
#270=DIRECTION('',(0.258819045102522,0.965925826289068,0.0));
#271=VECTOR('',#270,10.823782927489887);
#272=LINE('',#269,#271);
#273=EDGE_CURVE('',#266,#268,#272,.T.);
#274=ORIENTED_EDGE('',*,*,#273,.F.);
#275=CARTESIAN_POINT('',(-5.999999999999992,-26.303847577293347,3.221186E-015));
#276=VERTEX_POINT('',#275);
#277=CARTESIAN_POINT('',(-6.000000000000001,-1.836910E-015,0.0));
#278=DIRECTION('',(1.0,0.0,0.0));
#279=DIRECTION('',(0.0,1.0,0.0));
#280=AXIS2_PLACEMENT_3D('',#277,#278,#279);
#281=CIRCLE('',#280,26.303847577293343);
#282=EDGE_CURVE('',#266,#276,#281,.T.);
#283=ORIENTED_EDGE('',*,*,#282,.T.);
#284=CARTESIAN_POINT('',(-3.198598838310096,-36.758819045102520,4.501508E-015));
#285=VERTEX_POINT('',#284);
#286=CARTESIAN_POINT('',(-3.198598838310096,-36.758819045102520,4.501508E-015));
#287=DIRECTION('',(-0.258819045102521,0.965925826289068,-1.182879E-016));
#288=VECTOR('',#287,10.823782927489880);
#289=LINE('',#286,#288);
#290=EDGE_CURVE('',#285,#276,#289,.T.);
#291=ORIENTED_EDGE('',*,*,#290,.F.);
#292=CARTESIAN_POINT('',(-3.198598838310096,3.522252E-015,36.758819045102520));
#293=VERTEX_POINT('',#292);
#294=CARTESIAN_POINT('',(-3.198598838310097,-2.220446E-015,0.0));
#295=DIRECTION('',(1.0,0.0,0.0));
#296=DIRECTION('',(0.0,-1.0,0.0));
#297=AXIS2_PLACEMENT_3D('',#294,#295,#296);
#298=CIRCLE('',#297,36.758819045102520);
#299=EDGE_CURVE('',#293,#285,#298,.T.);
#300=ORIENTED_EDGE('',*,*,#299,.F.);
#301=CARTESIAN_POINT('',(-3.198598838310097,-2.220446E-015,0.0));
#302=DIRECTION('',(1.0,0.0,0.0));
#303=DIRECTION('',(0.0,-1.0,0.0));
#304=AXIS2_PLACEMENT_3D('',#301,#302,#303);
#305=CIRCLE('',#304,36.758819045102520);
#306=EDGE_CURVE('',#268,#293,#305,.T.);
#307=ORIENTED_EDGE('',*,*,#306,.F.);
#308=EDGE_LOOP('',(#274,#283,#291,#300,#307));
#309=FACE_OUTER_BOUND('',#308,.T.);
#310=ADVANCED_FACE('',(#309),#264,.T.);
#311=CARTESIAN_POINT('',(-2.232673012021028,-6.835364E-016,0.0));
#312=DIRECTION('',(1.0,3.061516E-016,0.0));
#313=DIRECTION('',(0.0,0.0,-1.0));
#314=AXIS2_PLACEMENT_3D('',#311,#312,#313);
#315=TOROIDAL_SURFACE('',#314,36.500000000000000,1.0);
#316=CARTESIAN_POINT('',(-3.198598838310097,-5.480764E-015,-36.758819045102520));
#317=VERTEX_POINT('',#316);
#318=CARTESIAN_POINT('',(-2.232673012021028,-5.275810E-015,-37.500000000000000));
#319=VERTEX_POINT('',#318);
#320=CARTESIAN_POINT('',(-2.232673012021028,-5.153350E-015,-36.500000000000000));
#321=DIRECTION('',(0.0,-1.0,0.0));
#322=DIRECTION('',(0.0,0.0,-1.0));
#323=AXIS2_PLACEMENT_3D('',#320,#321,#322);
#324=CIRCLE('',#323,1.0);
#325=EDGE_CURVE('',#317,#319,#324,.T.);
#326=ORIENTED_EDGE('',*,*,#325,.F.);
#327=CARTESIAN_POINT('',(-3.198598838310097,-2.220446E-015,0.0));
#328=DIRECTION('',(1.0,0.0,0.0));
#329=DIRECTION('',(0.0,-1.0,0.0));
#330=AXIS2_PLACEMENT_3D('',#327,#328,#329);
#331=CIRCLE('',#330,36.758819045102520);
#332=EDGE_CURVE('',#317,#268,#331,.T.);
#333=ORIENTED_EDGE('',*,*,#332,.T.);
#334=ORIENTED_EDGE('',*,*,#306,.T.);
#335=CARTESIAN_POINT('',(-2.232673012021028,3.786277E-015,36.500000000000000));
#336=DIRECTION('',(0.0,-1.0,0.0));
#337=DIRECTION('',(0.0,0.0,1.0));
#338=AXIS2_PLACEMENT_3D('',#335,#336,#337);
#339=CIRCLE('',#338,1.0);
#340=EDGE_CURVE('',#225,#293,#339,.T.);
#341=ORIENTED_EDGE('',*,*,#340,.F.);
#342=ORIENTED_EDGE('',*,*,#231,.T.);
#343=CARTESIAN_POINT('',(-2.232673012021028,-6.835364E-016,0.0));
#344=DIRECTION('',(-1.0,0.0,0.0));
#345=DIRECTION('',(0.0,-1.0,0.0));
#346=AXIS2_PLACEMENT_3D('',#343,#344,#345);
#347=CIRCLE('',#346,37.500000000000000);
#348=EDGE_CURVE('',#215,#319,#347,.T.);
#349=ORIENTED_EDGE('',*,*,#348,.T.);
#350=EDGE_LOOP('',(#326,#333,#334,#341,#342,#349));
#351=FACE_OUTER_BOUND('',#350,.T.);
#352=ADVANCED_FACE('',(#351),#315,.T.);
#353=CARTESIAN_POINT('',(-2.232673012021028,-6.835364E-016,0.0));
#354=DIRECTION('',(1.0,3.061516E-016,0.0));
#355=DIRECTION('',(0.0,0.0,-1.0));
#356=AXIS2_PLACEMENT_3D('',#353,#354,#355);
#357=TOROIDAL_SURFACE('',#356,36.500000000000000,1.0);
#358=ORIENTED_EDGE('',*,*,#325,.T.);
#359=CARTESIAN_POINT('',(-2.232673012021028,-6.835364E-016,0.0));
#360=DIRECTION('',(-1.0,0.0,0.0));
#361=DIRECTION('',(0.0,-1.0,0.0));
#362=AXIS2_PLACEMENT_3D('',#359,#360,#361);
#363=CIRCLE('',#362,37.500000000000000);
#364=EDGE_CURVE('',#319,#234,#363,.T.);
#365=ORIENTED_EDGE('',*,*,#364,.T.);
#366=ORIENTED_EDGE('',*,*,#240,.T.);
#367=ORIENTED_EDGE('',*,*,#340,.T.);
#368=ORIENTED_EDGE('',*,*,#299,.T.);
#369=CARTESIAN_POINT('',(-3.198598838310097,-2.220446E-015,0.0));
#370=DIRECTION('',(1.0,0.0,0.0));
#371=DIRECTION('',(0.0,-1.0,0.0));
#372=AXIS2_PLACEMENT_3D('',#369,#370,#371);
#373=CIRCLE('',#372,36.758819045102520);
#374=EDGE_CURVE('',#285,#317,#373,.T.);
#375=ORIENTED_EDGE('',*,*,#374,.T.);
#376=EDGE_LOOP('',(#358,#365,#366,#367,#368,#375));
#377=FACE_OUTER_BOUND('',#376,.T.);
#378=ADVANCED_FACE('',(#377),#357,.T.);
#379=CARTESIAN_POINT('',(-4.499999999999995,-1.377682E-015,0.0));
#380=DIRECTION('',(1.0,3.061516E-016,0.0));
#381=DIRECTION('',(0.0,1.0,0.0));
#382=AXIS2_PLACEMENT_3D('',#379,#380,#381);
#383=CONICAL_SURFACE('',#382,31.901923788646673,74.999999999999972);
#384=ORIENTED_EDGE('',*,*,#273,.T.);
#385=ORIENTED_EDGE('',*,*,#332,.F.);
#386=ORIENTED_EDGE('',*,*,#374,.F.);
#387=ORIENTED_EDGE('',*,*,#290,.T.);
#388=CARTESIAN_POINT('',(-6.000000000000001,-1.836910E-015,0.0));
#389=DIRECTION('',(1.0,0.0,0.0));
#390=DIRECTION('',(0.0,1.0,0.0));
#391=AXIS2_PLACEMENT_3D('',#388,#389,#390);
#392=CIRCLE('',#391,26.303847577293343);
#393=EDGE_CURVE('',#276,#266,#392,.T.);
#394=ORIENTED_EDGE('',*,*,#393,.T.);
#395=EDGE_LOOP('',(#384,#385,#386,#387,#394));
#396=FACE_OUTER_BOUND('',#395,.T.);
#397=ADVANCED_FACE('',(#396),#383,.T.);
#398=CARTESIAN_POINT('',(-1.499999999999989,-4.592274E-016,0.0));
#399=DIRECTION('',(1.0,3.061516E-016,0.0));
#400=DIRECTION('',(0.0,1.0,0.0));
#401=AXIS2_PLACEMENT_3D('',#398,#399,#400);
#402=CYLINDRICAL_SURFACE('',#401,37.500000000000000);
#403=ORIENTED_EDGE('',*,*,#222,.T.);
#404=CARTESIAN_POINT('',(1.148068E-014,3.268311E-030,0.0));
#405=DIRECTION('',(1.0,0.0,0.0));
#406=DIRECTION('',(0.0,1.0,0.0));
#407=AXIS2_PLACEMENT_3D('',#404,#405,#406);
#408=CIRCLE('',#407,37.500000000000000);
#409=EDGE_CURVE('',#243,#217,#408,.T.);
#410=ORIENTED_EDGE('',*,*,#409,.F.);
#411=ORIENTED_EDGE('',*,*,#248,.T.);
#412=ORIENTED_EDGE('',*,*,#364,.F.);
#413=ORIENTED_EDGE('',*,*,#348,.F.);
#414=EDGE_LOOP('',(#403,#410,#411,#412,#413));
#415=FACE_OUTER_BOUND('',#414,.T.);
#416=ADVANCED_FACE('',(#415),#402,.T.);
#417=CARTESIAN_POINT('',(-6.000000000000004,13.151923788646672,0.0));
#418=DIRECTION('',(-1.0,0.0,0.0));
#419=DIRECTION('',(0.0,0.0,1.0));
#420=AXIS2_PLACEMENT_3D('',#417,#418,#419);
#421=PLANE('',#420);
#422=ORIENTED_EDGE('',*,*,#282,.F.);
#423=ORIENTED_EDGE('',*,*,#393,.F.);
#424=EDGE_LOOP('',(#422,#423));
#425=FACE_OUTER_BOUND('',#424,.T.);
#426=ADVANCED_FACE('',(#425),#421,.T.);
#427=CARTESIAN_POINT('',(0.0,31.799999999999997,0.0));
#428=DIRECTION('',(1.0,0.0,0.0));
#429=DIRECTION('',(0.0,0.0,-1.0));
#430=AXIS2_PLACEMENT_3D('',#427,#428,#429);
#431=PLANE('',#430);
#432=ORIENTED_EDGE('',*,*,#255,.T.);
#433=ORIENTED_EDGE('',*,*,#409,.T.);
#434=EDGE_LOOP('',(#432,#433));
#435=FACE_OUTER_BOUND('',#434,.T.);
#436=CARTESIAN_POINT('',(7.990556E-015,2.199803E-030,0.0));
#437=DIRECTION('',(1.0,0.0,0.0));
#438=DIRECTION('',(0.0,1.0,0.0));
#439=AXIS2_PLACEMENT_3D('',#436,#437,#438);
#440=CIRCLE('',#439,26.099999999999998);
#441=EDGE_CURVE('',#175,#192,#440,.T.);
#442=ORIENTED_EDGE('',*,*,#441,.F.);
#443=ORIENTED_EDGE('',*,*,#204,.F.);
#444=EDGE_LOOP('',(#442,#443));
#445=FACE_BOUND('',#444,.T.);
#446=ADVANCED_FACE('',(#435,#445),#431,.T.);
#447=CARTESIAN_POINT('',(-1.249999999999992,-3.826895E-016,0.0));
#448=DIRECTION('',(1.0,3.061516E-016,0.0));
#449=DIRECTION('',(0.0,1.0,0.0));
#450=AXIS2_PLACEMENT_3D('',#447,#448,#449);
#451=CYLINDRICAL_SURFACE('',#450,26.099999999999998);
#452=ORIENTED_EDGE('',*,*,#180,.T.);
#453=ORIENTED_EDGE('',*,*,#441,.T.);
#454=ORIENTED_EDGE('',*,*,#197,.T.);
#455=CARTESIAN_POINT('',(-2.499999999999992,-7.653790E-016,0.0));
#456=DIRECTION('',(1.0,0.0,0.0));
#457=DIRECTION('',(0.0,1.0,0.0));
#458=AXIS2_PLACEMENT_3D('',#455,#456,#457);
#459=CIRCLE('',#458,26.099999999999998);
#460=EDGE_CURVE('',#173,#183,#459,.T.);
#461=ORIENTED_EDGE('',*,*,#460,.F.);
#462=EDGE_LOOP('',(#452,#453,#454,#461));
#463=FACE_OUTER_BOUND('',#462,.T.);
#464=ADVANCED_FACE('',(#463),#451,.F.);
#465=CARTESIAN_POINT('',(-2.500000000000000,24.350000000000005,0.0));
#466=DIRECTION('',(1.0,0.0,0.0));
#467=DIRECTION('',(0.0,0.0,-1.0));
#468=AXIS2_PLACEMENT_3D('',#465,#466,#467);
#469=PLANE('',#468);
#470=ORIENTED_EDGE('',*,*,#460,.T.);
#471=ORIENTED_EDGE('',*,*,#189,.T.);
#472=EDGE_LOOP('',(#470,#471));
#473=FACE_OUTER_BOUND('',#472,.T.);
#474=ORIENTED_EDGE('',*,*,#147,.F.);
#475=CARTESIAN_POINT('',(-2.499999999999993,-7.653790E-016,0.0));
#476=DIRECTION('',(1.0,0.0,0.0));
#477=DIRECTION('',(0.0,1.0,0.0));
#478=AXIS2_PLACEMENT_3D('',#475,#476,#477);
#479=CIRCLE('',#478,22.600000000000001);
#480=EDGE_CURVE('',#141,#131,#479,.T.);
#481=ORIENTED_EDGE('',*,*,#480,.F.);
#482=EDGE_LOOP('',(#474,#481));
#483=FACE_BOUND('',#482,.T.);
#484=ADVANCED_FACE('',(#473,#483),#469,.T.);
#485=CARTESIAN_POINT('',(-1.249999999999993,-3.826895E-016,0.0));
#486=DIRECTION('',(1.0,3.061516E-016,0.0));
#487=DIRECTION('',(0.0,1.0,0.0));
#488=AXIS2_PLACEMENT_3D('',#485,#486,#487);
#489=CYLINDRICAL_SURFACE('',#488,22.600000000000001);
#490=ORIENTED_EDGE('',*,*,#138,.T.);
#491=CARTESIAN_POINT('',(6.919026E-015,1.871752E-030,0.0));
#492=DIRECTION('',(1.0,0.0,0.0));
#493=DIRECTION('',(0.0,1.0,0.0));
#494=AXIS2_PLACEMENT_3D('',#491,#492,#493);
#495=CIRCLE('',#494,22.600000000000001);
#496=EDGE_CURVE('',#150,#133,#495,.T.);
#497=ORIENTED_EDGE('',*,*,#496,.F.);
#498=ORIENTED_EDGE('',*,*,#155,.T.);
#499=ORIENTED_EDGE('',*,*,#480,.T.);
#500=EDGE_LOOP('',(#490,#497,#498,#499));
#501=FACE_OUTER_BOUND('',#500,.T.);
#502=ADVANCED_FACE('',(#501),#489,.T.);
#503=CARTESIAN_POINT('',(0.0,11.300000000000001,0.0));
#504=DIRECTION('',(1.0,0.0,0.0));
#505=DIRECTION('',(0.0,0.0,-1.0));
#506=AXIS2_PLACEMENT_3D('',#503,#504,#505);
#507=PLANE('',#506);
#508=ORIENTED_EDGE('',*,*,#162,.T.);
#509=ORIENTED_EDGE('',*,*,#496,.T.);
#510=EDGE_LOOP('',(#508,#509));
#511=FACE_OUTER_BOUND('',#510,.T.);
#512=ADVANCED_FACE('',(#511),#507,.T.);
#513=CLOSED_SHELL('',(#166,#208,#259,#310,#352,#378,#397,#416,#426,#446,#464,#484,#502,#512));
#514=MANIFOLD_SOLID_BREP('',#513);
#515=ADVANCED_BREP_SHAPE_REPRESENTATION('ABSR',(#514),#117);
#516=SHAPE_REPRESENTATION_RELATIONSHIP('SRR','None',#515,#122);
ENDSEC;
END-ISO-10303-21;
