ISO-10303-21;
HEADER;
FILE_DESCRIPTION (( 'STEP AP214' ),
    '1' );
FILE_NAME ('690DDR600.step',
    '2017-07-10T05:45:54',
    ( 'install' ),
    ( '' ),
    'SwSTEP 2.0',
    'SolidWorks 2015',
    '' );
FILE_SCHEMA (( 'AUTOMOTIVE_DESIGN' ));
ENDSEC;

DATA;
#1 = DIRECTION ( 'NONE',  ( -0.0000000000000000000, -0.0000000000000000000, 1.000000000000000000 ) ) ;
#2 = STYLED_ITEM ( 'NONE', ( #125 ), #61 ) ;
#3 = CIRCLE ( 'NONE', #144, 1.000000000000000900 ) ;
#4 = DIRECTION ( 'NONE',  ( -1.000000000000000000, 1.224646799147349500E-016, 0.0000000000000000000 ) ) ;
#5 = DIRECTION ( 'NONE',  ( 1.000000000000000000, 0.0000000000000000000, 0.0000000000000000000 ) ) ;
#6 = SURFACE_STYLE_USAGE ( .BOTH. , #75 ) ;
#7 = CIRCLE ( 'NONE', #118, 1.000000000000001800 ) ;
#8 = EDGE_CURVE ( 'NONE', #16, #70, #67, .T. ) ;
#9 = CARTESIAN_POINT ( 'NONE',  ( 0.0000000000000000000, 0.0000000000000000000, 0.0000000000000000000 ) ) ;
#10 = CARTESIAN_POINT ( 'NONE',  ( 0.0000000000000000000, 0.0000000000000000000, 0.0000000000000000000 ) ) ;
#11 = COLOUR_RGB ( '',0.7254901960784313500, 0.4470588235294117300, 0.3686274509803921800 ) ;
#12 = CARTESIAN_POINT ( 'NONE',  ( 0.0000000000000000000, 0.0000000000000000000, 0.0000000000000000000 ) ) ;
#13 = PRESENTATION_LAYER_ASSIGNMENT (  '', '', ( #2 ) ) ;
#14 = ADVANCED_FACE ( 'NONE', ( #27 ), #37, .T. ) ;
#15 = EDGE_LOOP ( 'NONE', ( #139, #55, #108, #42 ) ) ;
#16 = VERTEX_POINT ( 'NONE', #33 ) ;
#17 = EDGE_CURVE ( 'NONE', #70, #16, #94, .T. ) ;
#18 = FILL_AREA_STYLE_COLOUR ( '', #11 ) ;
#19 =( NAMED_UNIT ( * ) PLANE_ANGLE_UNIT ( ) SI_UNIT ( $, .RADIAN. ) );
#20 = MECHANICAL_DESIGN_GEOMETRIC_PRESENTATION_REPRESENTATION (  '', ( #2 ), #28 ) ;
#21 = ORIENTED_EDGE ( 'NONE', *, *, #73, .F. ) ;
#22 = TOROIDAL_SURFACE ( 'NONE', #49, 318.6000000000000200, 1.000000000000001800 ) ;
#23 = DIRECTION ( 'NONE',  ( 1.000000000000000000, 0.0000000000000000000, 0.0000000000000000000 ) ) ;
#24 = CARTESIAN_POINT ( 'NONE',  ( 0.0000000000000000000, 0.0000000000000000000, -1.224646799147355400E-016 ) ) ;
#25 = ORIENTED_EDGE ( 'NONE', *, *, #56, .T. ) ;
#26 =( NAMED_UNIT ( * ) SI_UNIT ( $, .STERADIAN. ) SOLID_ANGLE_UNIT ( ) );
#27 = FACE_OUTER_BOUND ( 'NONE', #15, .T. ) ;
#28 =( GEOMETRIC_REPRESENTATION_CONTEXT ( 3 ) GLOBAL_UNCERTAINTY_ASSIGNED_CONTEXT ( ( #120 ) ) GLOBAL_UNIT_ASSIGNED_CONTEXT ( ( #60, #91, #26 ) ) REPRESENTATION_CONTEXT ( 'NONE', 'WORKASPACE' ) );
#29 = CARTESIAN_POINT ( 'NONE',  ( 0.0000000000000000000, 0.0000000000000000000, -1.224646799147355400E-016 ) ) ;
#30 = ORIENTED_EDGE ( 'NONE', *, *, #32, .T. ) ;
#31 = COLOUR_RGB ( '',0.7254901960784313500, 0.4470588235294117300, 0.3686274509803921800 ) ;
#32 = EDGE_CURVE ( 'NONE', #88, #16, #100, .T. ) ;
#33 = CARTESIAN_POINT ( 'NONE',  ( 319.6000000000000200, 0.0000000000000000000, 0.0000000000000000000 ) ) ;
#34 = DIRECTION ( 'NONE',  ( 1.000000000000000000, 0.0000000000000000000, 0.0000000000000000000 ) ) ;
#35 = AXIS2_PLACEMENT_3D ( 'NONE', #29, #109, #38 ) ;
#36 = FACE_OUTER_BOUND ( 'NONE', #78, .T. ) ;
#37 = TOROIDAL_SURFACE ( 'NONE', #99, 318.6000000000000200, 1.000000000000001800 ) ;
#38 = DIRECTION ( 'NONE',  ( 1.000000000000000000, 0.0000000000000000000, 0.0000000000000000000 ) ) ;
#39 =( NAMED_UNIT ( * ) SI_UNIT ( $, .STERADIAN. ) SOLID_ANGLE_UNIT ( ) );
#40 = DIRECTION ( 'NONE',  ( 0.0000000000000000000, 0.0000000000000000000, 1.000000000000000000 ) ) ;
#41 =( GEOMETRIC_REPRESENTATION_CONTEXT ( 3 ) GLOBAL_UNCERTAINTY_ASSIGNED_CONTEXT ( ( #85 ) ) GLOBAL_UNIT_ASSIGNED_CONTEXT ( ( #74, #111, #39 ) ) REPRESENTATION_CONTEXT ( 'NONE', 'WORKASPACE' ) );
#42 = ORIENTED_EDGE ( 'NONE', *, *, #73, .T. ) ;
#43 = DIRECTION ( 'NONE',  ( 1.000000000000000000, 0.0000000000000000000, 0.0000000000000000000 ) ) ;
#44 = DIRECTION ( 'NONE',  ( 0.0000000000000000000, -1.000000000000000000, 0.0000000000000000000 ) ) ;
#45 = ORIENTED_EDGE ( 'NONE', *, *, #46, .F. ) ;
#46 = EDGE_CURVE ( 'NONE', #16, #88, #7, .T. ) ;
#47 = EDGE_CURVE ( 'NONE', #148, #88, #135, .T. ) ;
#48 = EDGE_LOOP ( 'NONE', ( #142, #57, #154, #114 ) ) ;
#49 = AXIS2_PLACEMENT_3D ( 'NONE', #82, #128, #51 ) ;
#50 = CIRCLE ( 'NONE', #35, 317.6000000000000200 ) ;
#51 = DIRECTION ( 'NONE',  ( 1.000000000000000000, 0.0000000000000000000, 0.0000000000000000000 ) ) ;
#52 = APPLICATION_PROTOCOL_DEFINITION ( 'draft international standard', 'automotive_design', 1998, #63 ) ;
#53 = PRODUCT_DEFINITION_SHAPE ( 'NONE', 'NONE',  #134 ) ;
#54 = PRODUCT_CONTEXT ( 'NONE', #63, 'mechanical' ) ;
#55 = ORIENTED_EDGE ( 'NONE', *, *, #32, .F. ) ;
#56 = EDGE_CURVE ( 'NONE', #70, #148, #65, .T. ) ;
#57 = ORIENTED_EDGE ( 'NONE', *, *, #17, .T. ) ;
#58 = ADVANCED_FACE ( 'NONE', ( #36 ), #132, .T. ) ;
#59 = AXIS2_PLACEMENT_3D ( 'NONE', #95, #152, #5 ) ;
#60 =( LENGTH_UNIT ( ) NAMED_UNIT ( * ) SI_UNIT ( .MILLI., .METRE. ) );
#61 = MANIFOLD_SOLID_BREP ( 'Rotation1', #123 ) ;
#62 = SHAPE_DEFINITION_REPRESENTATION ( #53, #140 ) ;
#63 = APPLICATION_CONTEXT ( 'automotive_design' ) ;
#64 = APPLICATION_PROTOCOL_DEFINITION ( 'draft international standard', 'automotive_design', 1998, #141 ) ;
#65 = CIRCLE ( 'NONE', #137, 1.000000000000000900 ) ;
#66 = CARTESIAN_POINT ( 'NONE',  ( 318.6000000000000200, 0.0000000000000000000, 0.0000000000000000000 ) ) ;
#67 = CIRCLE ( 'NONE', #146, 319.6000000000000200 ) ;
#68 = SURFACE_SIDE_STYLE ('',( #158 ) ) ;
#69 = STYLED_ITEM ( 'NONE', ( #97 ), #140 ) ;
#70 = VERTEX_POINT ( 'NONE', #121 ) ;
#71 = DIRECTION ( 'NONE',  ( -1.000000000000000000, 1.224646799147349500E-016, 0.0000000000000000000 ) ) ;
#72 = DIRECTION ( 'NONE',  ( 1.224646799147353200E-016, 1.000000000000000000, 0.0000000000000000000 ) ) ;
#73 = EDGE_CURVE ( 'NONE', #148, #70, #3, .T. ) ;
#74 =( LENGTH_UNIT ( ) NAMED_UNIT ( * ) SI_UNIT ( .MILLI., .METRE. ) );
#75 = SURFACE_SIDE_STYLE ('',( #136 ) ) ;
#76 = ORIENTED_EDGE ( 'NONE', *, *, #90, .F. ) ;
#77 = DIRECTION ( 'NONE',  ( 0.0000000000000000000, 0.0000000000000000000, -1.000000000000000000 ) ) ;
#78 = EDGE_LOOP ( 'NONE', ( #80, #21, #103, #30 ) ) ;
#79 = PRESENTATION_LAYER_ASSIGNMENT (  '', '', ( #69 ) ) ;
#80 = ORIENTED_EDGE ( 'NONE', *, *, #17, .F. ) ;
#81 = DIRECTION ( 'NONE',  ( 1.224646799147353200E-016, 1.000000000000000000, 0.0000000000000000000 ) ) ;
#82 = CARTESIAN_POINT ( 'NONE',  ( 0.0000000000000000000, 0.0000000000000000000, 0.0000000000000000000 ) ) ;
#83 =( LENGTH_UNIT ( ) NAMED_UNIT ( * ) SI_UNIT ( .MILLI., .METRE. ) );
#84 = MECHANICAL_DESIGN_GEOMETRIC_PRESENTATION_REPRESENTATION (  '', ( #69 ), #93 ) ;
#85 = UNCERTAINTY_MEASURE_WITH_UNIT (LENGTH_MEASURE( 1.000000000000000100E-005 ), #74, 'distance_accuracy_value', 'NONE');
#86 = CARTESIAN_POINT ( 'NONE',  ( 0.0000000000000000000, 0.0000000000000000000, 0.0000000000000000000 ) ) ;
#87 = DIRECTION ( 'NONE',  ( -0.0000000000000000000, -0.0000000000000000000, 1.000000000000000000 ) ) ;
#88 = VERTEX_POINT ( 'NONE', #127 ) ;
#89 = FACE_OUTER_BOUND ( 'NONE', #48, .T. ) ;
#90 = EDGE_CURVE ( 'NONE', #88, #148, #50, .T. ) ;
#91 =( NAMED_UNIT ( * ) PLANE_ANGLE_UNIT ( ) SI_UNIT ( $, .RADIAN. ) );
#92 = CARTESIAN_POINT ( 'NONE',  ( -318.6000000000000200, 3.901724702083467900E-014, 0.0000000000000000000 ) ) ;
#93 =( GEOMETRIC_REPRESENTATION_CONTEXT ( 3 ) GLOBAL_UNCERTAINTY_ASSIGNED_CONTEXT ( ( #104 ) ) GLOBAL_UNIT_ASSIGNED_CONTEXT ( ( #83, #19, #98 ) ) REPRESENTATION_CONTEXT ( 'NONE', 'WORKASPACE' ) );
#94 = CIRCLE ( 'NONE', #117, 319.6000000000000200 ) ;
#95 = CARTESIAN_POINT ( 'NONE',  ( 0.0000000000000000000, 0.0000000000000000000, 0.0000000000000000000 ) ) ;
#96 = CARTESIAN_POINT ( 'NONE',  ( -317.6000000000000200, 3.889478234091994400E-014, -1.224646799147356400E-016 ) ) ;
#97 = PRESENTATION_STYLE_ASSIGNMENT (( #6 ) ) ;
#98 =( NAMED_UNIT ( * ) SI_UNIT ( $, .STERADIAN. ) SOLID_ANGLE_UNIT ( ) );
#99 = AXIS2_PLACEMENT_3D ( 'NONE', #86, #130, #43 ) ;
#100 = CIRCLE ( 'NONE', #106, 1.000000000000001800 ) ;
#101 = DIRECTION ( 'NONE',  ( -0.0000000000000000000, -0.0000000000000000000, 1.000000000000000000 ) ) ;
#102 = ADVANCED_FACE ( 'NONE', ( #89 ), #22, .T. ) ;
#103 = ORIENTED_EDGE ( 'NONE', *, *, #47, .T. ) ;
#104 = UNCERTAINTY_MEASURE_WITH_UNIT (LENGTH_MEASURE( 1.000000000000000100E-005 ), #83, 'distance_accuracy_value', 'NONE');
#105 = FILL_AREA_STYLE ('',( #126 ) ) ;
#106 = AXIS2_PLACEMENT_3D ( 'NONE', #116, #44, #133 ) ;
#107 = DIRECTION ( 'NONE',  ( 1.000000000000000000, 0.0000000000000000000, 0.0000000000000000000 ) ) ;
#108 = ORIENTED_EDGE ( 'NONE', *, *, #90, .T. ) ;
#109 = DIRECTION ( 'NONE',  ( -0.0000000000000000000, -0.0000000000000000000, 1.000000000000000000 ) ) ;
#110 = FACE_OUTER_BOUND ( 'NONE', #145, .T. ) ;
#111 =( NAMED_UNIT ( * ) PLANE_ANGLE_UNIT ( ) SI_UNIT ( $, .RADIAN. ) );
#112 = CARTESIAN_POINT ( 'NONE',  ( 0.0000000000000000000, 0.0000000000000000000, 0.0000000000000000000 ) ) ;
#113 = PRODUCT_DEFINITION_CONTEXT ( 'detailed design', #141, 'design' ) ;
#114 = ORIENTED_EDGE ( 'NONE', *, *, #47, .F. ) ;
#115 = DIRECTION ( 'NONE',  ( 1.000000000000000000, 0.0000000000000000000, 0.0000000000000000000 ) ) ;
#116 = CARTESIAN_POINT ( 'NONE',  ( 318.6000000000000200, 0.0000000000000000000, 0.0000000000000000000 ) ) ;
#117 = AXIS2_PLACEMENT_3D ( 'NONE', #10, #87, #23 ) ;
#118 = AXIS2_PLACEMENT_3D ( 'NONE', #66, #157, #77 ) ;
#119 = ORIENTED_EDGE ( 'NONE', *, *, #8, .T. ) ;
#120 = UNCERTAINTY_MEASURE_WITH_UNIT (LENGTH_MEASURE( 1.000000000000000100E-005 ), #60, 'distance_accuracy_value', 'NONE');
#121 = CARTESIAN_POINT ( 'NONE',  ( -319.6000000000000200, 3.913971170074942000E-014, 0.0000000000000000000 ) ) ;
#122 = SURFACE_STYLE_USAGE ( .BOTH. , #68 ) ;
#123 = CLOSED_SHELL ( 'NONE', ( #102, #138, #14, #58 ) ) ;
#124 = AXIS2_PLACEMENT_3D ( 'NONE', #112, #40, #129 ) ;
#125 = PRESENTATION_STYLE_ASSIGNMENT (( #122 ) ) ;
#126 = FILL_AREA_STYLE_COLOUR ( '', #31 ) ;
#127 = CARTESIAN_POINT ( 'NONE',  ( 317.6000000000000200, 0.0000000000000000000, -1.224646799147356400E-016 ) ) ;
#128 = DIRECTION ( 'NONE',  ( -0.0000000000000000000, -0.0000000000000000000, 1.000000000000000000 ) ) ;
#129 = DIRECTION ( 'NONE',  ( 1.000000000000000000, 0.0000000000000000000, 0.0000000000000000000 ) ) ;
#130 = DIRECTION ( 'NONE',  ( -0.0000000000000000000, -0.0000000000000000000, 1.000000000000000000 ) ) ;
#131 = AXIS2_PLACEMENT_3D ( 'NONE', #24, #101, #34 ) ;
#132 = TOROIDAL_SURFACE ( 'NONE', #156, 318.6000000000000200, 1.000000000000001800 ) ;
#133 = DIRECTION ( 'NONE',  ( 0.0000000000000000000, 0.0000000000000000000, -1.000000000000000000 ) ) ;
#134 = PRODUCT_DEFINITION ( 'UNKNOWN', '', #143, #113 ) ;
#135 = CIRCLE ( 'NONE', #131, 317.6000000000000200 ) ;
#136 = SURFACE_STYLE_FILL_AREA ( #153 ) ;
#137 = AXIS2_PLACEMENT_3D ( 'NONE', #92, #81, #71 ) ;
#138 = ADVANCED_FACE ( 'NONE', ( #110 ), #147, .T. ) ;
#139 = ORIENTED_EDGE ( 'NONE', *, *, #8, .F. ) ;
#140 = ADVANCED_BREP_SHAPE_REPRESENTATION ( '690DDR600', ( #61, #124 ), #41 ) ;
#141 = APPLICATION_CONTEXT ( 'automotive_design' ) ;
#142 = ORIENTED_EDGE ( 'NONE', *, *, #56, .F. ) ;
#143 = PRODUCT_DEFINITION_FORMATION_WITH_SPECIFIED_SOURCE ( 'ANY', '', #151, .NOT_KNOWN. ) ;
#144 = AXIS2_PLACEMENT_3D ( 'NONE', #150, #72, #4 ) ;
#145 = EDGE_LOOP ( 'NONE', ( #45, #119, #25, #76 ) ) ;
#146 = AXIS2_PLACEMENT_3D ( 'NONE', #9, #155, #115 ) ;
#147 = TOROIDAL_SURFACE ( 'NONE', #59, 318.6000000000000200, 1.000000000000001800 ) ;
#148 = VERTEX_POINT ( 'NONE', #96 ) ;
#149 = PRODUCT_RELATED_PRODUCT_CATEGORY ( 'part', '', ( #151 ) ) ;
#150 = CARTESIAN_POINT ( 'NONE',  ( -318.6000000000000200, 3.901724702083467900E-014, 0.0000000000000000000 ) ) ;
#151 = PRODUCT ( '690DDR600', '690DDR600', '', ( #54 ) ) ;
#152 = DIRECTION ( 'NONE',  ( -0.0000000000000000000, -0.0000000000000000000, 1.000000000000000000 ) ) ;
#153 = FILL_AREA_STYLE ('',( #18 ) ) ;
#154 = ORIENTED_EDGE ( 'NONE', *, *, #46, .T. ) ;
#155 = DIRECTION ( 'NONE',  ( -0.0000000000000000000, -0.0000000000000000000, 1.000000000000000000 ) ) ;
#156 = AXIS2_PLACEMENT_3D ( 'NONE', #12, #1, #107 ) ;
#157 = DIRECTION ( 'NONE',  ( 0.0000000000000000000, -1.000000000000000000, 0.0000000000000000000 ) ) ;
#158 = SURFACE_STYLE_FILL_AREA ( #105 ) ;
ENDSEC;
END-ISO-10303-21;
